  0
SECTION
  2
HEADER
  9
$ACADVER
  1
AC1018
  9
$ACADMAINTVER
 70
   104
  9
$DWGCODEPAGE
  3
ANSI_1252
  9
$INSBASE
 10
0.0
 20
0.0
 30
0.0
  9
$EXTMIN
 10
1.000000000000000E+20
 20
1.000000000000000E+20
 30
1.000000000000000E+20
  9
$EXTMAX
 10
-1.000000000000000E+20
 20
-1.000000000000000E+20
 30
-1.000000000000000E+20
  9
$LIMMIN
 10
0.0
 20
0.0
  9
$LIMMAX
 10
12.0
 20
9.0
  9
$ORTHOMODE
 70
     0
  9
$REGENMODE
 70
     1
  9
$FILLMODE
 70
     1
  9
$QTEXTMODE
 70
     0
  9
$MIRRTEXT
 70
     0
  9
$LTSCALE
 40
1.0
  9
$ATTMODE
 70
     1
  9
$TEXTSIZE
 40
0.2
  9
$TRACEWID
 40
0.05
  9
$TEXTSTYLE
  7
Standard
  9
$CLAYER
  8
0
  9
$CELTYPE
  6
ByLayer
  9
$CECOLOR
 62
   256
  9
$CELTSCALE
 40
1.0
  9
$DISPSILH
 70
     0
  9
$DIMSCALE
 40
1.0
  9
$DIMASZ
 40
0.18
  9
$DIMEXO
 40
0.0625
  9
$DIMDLI
 40
0.38
  9
$DIMRND
 40
0.0
  9
$DIMDLE
 40
0.0
  9
$DIMEXE
 40
0.18
  9
$DIMTP
 40
0.0
  9
$DIMTM
 40
0.0
  9
$DIMTXT
 40
0.18
  9
$DIMCEN
 40
0.09
  9
$DIMTSZ
 40
0.0
  9
$DIMTOL
 70
     0
  9
$DIMLIM
 70
     0
  9
$DIMTIH
 70
     1
  9
$DIMTOH
 70
     1
  9
$DIMSE1
 70
     0
  9
$DIMSE2
 70
     0
  9
$DIMTAD
 70
     0
  9
$DIMZIN
 70
     0
  9
$DIMBLK
  1

  9
$DIMASO
 70
     1
  9
$DIMSHO
 70
     1
  9
$DIMPOST
  1

  9
$DIMAPOST
  1

  9
$DIMALT
 70
     0
  9
$DIMALTD
 70
     2
  9
$DIMALTF
 40
25.4
  9
$DIMLFAC
 40
1.0
  9
$DIMTOFL
 70
     0
  9
$DIMTVP
 40
0.0
  9
$DIMTIX
 70
     0
  9
$DIMSOXD
 70
     0
  9
$DIMSAH
 70
     0
  9
$DIMBLK1
  1

  9
$DIMBLK2
  1

  9
$DIMSTYLE
  2
Standard
  9
$DIMCLRD
 70
     0
  9
$DIMCLRE
 70
     0
  9
$DIMCLRT
 70
     0
  9
$DIMTFAC
 40
1.0
  9
$DIMGAP
 40
0.09
  9
$DIMJUST
 70
     0
  9
$DIMSD1
 70
     0
  9
$DIMSD2
 70
     0
  9
$DIMTOLJ
 70
     1
  9
$DIMTZIN
 70
     0
  9
$DIMALTZ
 70
     0
  9
$DIMALTTZ
 70
     0
  9
$DIMUPT
 70
     0
  9
$DIMDEC
 70
     4
  9
$DIMTDEC
 70
     4
  9
$DIMALTU
 70
     2
  9
$DIMALTTD
 70
     2
  9
$DIMTXSTY
  7
Standard
  9
$DIMAUNIT
 70
     0
  9
$DIMADEC
 70
     0
  9
$DIMALTRND
 40
0.0
  9
$DIMAZIN
 70
     0
  9
$DIMDSEP
 70
    46
  9
$DIMATFIT
 70
     3
  9
$DIMFRAC
 70
     0
  9
$DIMLDRBLK
  1

  9
$DIMLUNIT
 70
     2
  9
$DIMLWD
 70
    -2
  9
$DIMLWE
 70
    -2
  9
$DIMTMOVE
 70
     0
  9
$LUNITS
 70
     2
  9
$LUPREC
 70
     4
  9
$SKETCHINC
 40
0.1
  9
$FILLETRAD
 40
0.0
  9
$AUNITS
 70
     0
  9
$AUPREC
 70
     0
  9
$MENU
  1
.
  9
$ELEVATION
 40
0.0
  9
$PELEVATION
 40
0.0
  9
$THICKNESS
 40
0.0
  9
$LIMCHECK
 70
     0
  9
$CHAMFERA
 40
0.0
  9
$CHAMFERB
 40
0.0
  9
$CHAMFERC
 40
0.0
  9
$CHAMFERD
 40
0.0
  9
$SKPOLY
 70
     0
  9
$TDCREATE
 40
2460427.652997685
  9
$TDUCREATE
 40
2460427.569664352
  9
$TDUPDATE
 40
2460427.652997685
  9
$TDUUPDATE
 40
2460427.569664352
  9
$TDINDWG
 40
0.0000115741
  9
$TDUSRTIMER
 40
0.0000115741
  9
$USRTIMER
 70
     1
  9
$ANGBASE
 50
0.0
  9
$ANGDIR
 70
     0
  9
$PDMODE
 70
     0
  9
$PDSIZE
 40
0.0
  9
$PLINEWID
 40
0.0
  9
$SPLFRAME
 70
     0
  9
$SPLINETYPE
 70
     6
  9
$SPLINESEGS
 70
     8
  9
$HANDSEED
  5
EE
  9
$SURFTAB1
 70
     6
  9
$SURFTAB2
 70
     6
  9
$SURFTYPE
 70
     6
  9
$SURFU
 70
     6
  9
$SURFV
 70
     6
  9
$UCSBASE
  2

  9
$UCSNAME
  2

  9
$UCSORG
 10
0.0
 20
0.0
 30
0.0
  9
$UCSXDIR
 10
1.0
 20
0.0
 30
0.0
  9
$UCSYDIR
 10
0.0
 20
1.0
 30
0.0
  9
$UCSORTHOREF
  2

  9
$UCSORTHOVIEW
 70
     0
  9
$UCSORGTOP
 10
0.0
 20
0.0
 30
0.0
  9
$UCSORGBOTTOM
 10
0.0
 20
0.0
 30
0.0
  9
$UCSORGLEFT
 10
0.0
 20
0.0
 30
0.0
  9
$UCSORGRIGHT
 10
0.0
 20
0.0
 30
0.0
  9
$UCSORGFRONT
 10
0.0
 20
0.0
 30
0.0
  9
$UCSORGBACK
 10
0.0
 20
0.0
 30
0.0
  9
$PUCSBASE
  2

  9
$PUCSNAME
  2

  9
$PUCSORG
 10
0.0
 20
0.0
 30
0.0
  9
$PUCSXDIR
 10
1.0
 20
0.0
 30
0.0
  9
$PUCSYDIR
 10
0.0
 20
1.0
 30
0.0
  9
$PUCSORTHOREF
  2

  9
$PUCSORTHOVIEW
 70
     0
  9
$PUCSORGTOP
 10
0.0
 20
0.0
 30
0.0
  9
$PUCSORGBOTTOM
 10
0.0
 20
0.0
 30
0.0
  9
$PUCSORGLEFT
 10
0.0
 20
0.0
 30
0.0
  9
$PUCSORGRIGHT
 10
0.0
 20
0.0
 30
0.0
  9
$PUCSORGFRONT
 10
0.0
 20
0.0
 30
0.0
  9
$PUCSORGBACK
 10
0.0
 20
0.0
 30
0.0
  9
$USERI1
 70
     0
  9
$USERI2
 70
     0
  9
$USERI3
 70
     0
  9
$USERI4
 70
     0
  9
$USERI5
 70
     0
  9
$USERR1
 40
0.0
  9
$USERR2
 40
0.0
  9
$USERR3
 40
0.0
  9
$USERR4
 40
0.0
  9
$USERR5
 40
0.0
  9
$WORLDVIEW
 70
     1
  9
$SHADEDGE
 70
     3
  9
$SHADEDIF
 70
    70
  9
$TILEMODE
 70
     1
  9
$MAXACTVP
 70
    64
  9
$PINSBASE
 10
0.0
 20
0.0
 30
0.0
  9
$PLIMCHECK
 70
     0
  9
$PEXTMIN
 10
1.000000000000000E+20
 20
1.000000000000000E+20
 30
1.000000000000000E+20
  9
$PEXTMAX
 10
-1.000000000000000E+20
 20
-1.000000000000000E+20
 30
-1.000000000000000E+20
  9
$PLIMMIN
 10
0.0
 20
0.0
  9
$PLIMMAX
 10
12.0
 20
9.0
  9
$UNITMODE
 70
     0
  9
$VISRETAIN
 70
     1
  9
$PLINEGEN
 70
     0
  9
$PSLTSCALE
 70
     1
  9
$TREEDEPTH
 70
  3020
  9
$CMLSTYLE
  2
Standard
  9
$CMLJUST
 70
     0
  9
$CMLSCALE
 40
1.0
  9
$PROXYGRAPHICS
 70
     1
  9
$MEASUREMENT
 70
     0
  9
$CELWEIGHT
370
    -1
  9
$ENDCAPS
280
     0
  9
$JOINSTYLE
280
     0
  9
$LWDISPLAY
290
     1
  9
$INSUNITS
 70
     4
  9
$HYPERLINKBASE
  1

  9
$STYLESHEET
  1

  9
$XEDIT
290
     1
  9
$CEPSNTYPE
380
     0
  9
$PSTYLEMODE
290
     1
  9
$FINGERPRINTGUID
  2
{2F1FB031-BA67-3B44-B8F4-BF3D94DED123}
  9
$VERSIONGUID
  2
{C3FDAD0E-7B42-C646-B618-2584DFA3EC62}
  9
$EXTNAMES
290
     1
  9
$PSVPSCALE
 40
0.0
  9
$OLESTARTUP
290
     0
  9
$SORTENTS
280
   127
  9
$INDEXCTL
280
     0
  9
$HIDETEXT
280
     1
  9
$XCLIPFRAME
290
     0
  9
$HALOGAP
280
     0
  9
$OBSCOLOR
 70
   257
  9
$OBSLTYPE
280
     0
  9
$INTERSECTIONDISPLAY
280
     0
  9
$INTERSECTIONCOLOR
 70
   257
  9
$DIMASSOC
280
     2
  9
$PROJECTNAME
  1

  0
ENDSEC
  0
SECTION
  2
CLASSES
  0
CLASS
  1
ACDBDICTIONARYWDFLT
  2
AcDbDictionaryWithDefault
  3
ObjectDBX Classes
 90
        0
 91
        1
280
     0
281
     0
  0
CLASS
  1
MATERIAL
  2
AcDbMaterial
  3
ObjectDBX Classes
 90
     1153
 91
        3
280
     0
281
     0
  0
CLASS
  1
VISUALSTYLE
  2
AcDbVisualStyle
  3
ObjectDBX Classes
 90
     4095
 91
       24
280
     0
281
     0
  0
CLASS
  1
SCALE
  2
AcDbScale
  3
ObjectDBX Classes
 90
     1153
 91
       17
280
     0
281
     0
  0
CLASS
  1
TABLESTYLE
  2
AcDbTableStyle
  3
ObjectDBX Classes
 90
     4095
 91
        1
280
     0
281
     0
  0
CLASS
  1
MLEADERSTYLE
  2
AcDbMLeaderStyle
  3
ACDB_MLEADERSTYLE_CLASS
 90
     4095
 91
        1
280
     0
281
     0
  0
CLASS
  1
ACDBSECTIONVIEWSTYLE
  2
AcDbSectionViewStyle
  3
ObjectDBX Classes
 90
     1025
 91
        1
280
     0
281
     0
  0
CLASS
  1
ACDBDETAILVIEWSTYLE
  2
AcDbDetailViewStyle
  3
ObjectDBX Classes
 90
     1025
 91
        1
280
     0
281
     0
  0
CLASS
  1
DICTIONARYVAR
  2
AcDbDictionaryVar
  3
ObjectDBX Classes
 90
        0
 91
       10
280
     0
281
     0
  0
CLASS
  1
CELLSTYLEMAP
  2
AcDbCellStyleMap
  3
ObjectDBX Classes
 90
     1152
 91
        1
280
     0
281
     0
  0
ENDSEC
  0
SECTION
  2
TABLES
  0
TABLE
  2
VPORT
  5
8
330
0
100
AcDbSymbolTable
 70
     1
  0
VPORT
  5
57
330
8
100
AcDbSymbolTableRecord
100
AcDbViewportTableRecord
  2
*Active
 70
     0
 10
0.0
 20
0.0
 11
1.0
 21
1.0
 12
0.0
 22
0.0
 13
0.0
 23
0.0
 14
1.0
 24
1.0
 15
0.0
 25
0.0
 16
0.0
 26
0.0
 36
1.0
 17
105.0000721959725
 27
426.6654957266669
 37
0.0
 40
1893.01263886008
 41
3.249164272229111
 42
50.0
 43
0.0
 44
0.0
 50
0.0
 51
0.0
 71
     0
 72
   100
 73
     1
 74
     1
 75
     0
 76
     0
 77
     0
 78
     0
281
     0
 65
     1
110
0.0
120
0.0
130
0.0
111
1.0
121
0.0
131
0.0
112
0.0
122
1.0
132
0.0
 79
     0
146
0.0
  0
ENDTAB
  0
TABLE
  2
LTYPE
  5
5
330
0
100
AcDbSymbolTable
 70
     1
  0
LTYPE
  5
5B
330
5
100
AcDbSymbolTableRecord
100
AcDbLinetypeTableRecord
  2
ByBlock
 70
     0
  3

 72
    65
 73
     0
 40
0.0
  0
LTYPE
  5
5C
330
5
100
AcDbSymbolTableRecord
100
AcDbLinetypeTableRecord
  2
ByLayer
 70
     0
  3

 72
    65
 73
     0
 40
0.0
  0
LTYPE
  5
5D
330
5
100
AcDbSymbolTableRecord
100
AcDbLinetypeTableRecord
  2
Continuous
 70
     0
  3
Solid line
 72
    65
 73
     0
 40
0.0
  0
ENDTAB
  0
TABLE
  2
LAYER
  5
2
330
0
100
AcDbSymbolTable
 70
     2
  0
LAYER
  5
54
330
2
100
AcDbSymbolTableRecord
100
AcDbLayerTableRecord
  2
0
 70
     0
 62
     7
  6
Continuous
370
    -3
390
F
  0
LAYER
  5
78
330
2
100
AcDbSymbolTableRecord
100
AcDbLayerTableRecord
  2
Livello 1
 70
     0
 62
     7
  6
Continuous
370
     0
390
F
  0
ENDTAB
  0
TABLE
  2
STYLE
  5
3
330
0
100
AcDbSymbolTable
 70
     2
  0
STYLE
  5
55
330
3
100
AcDbSymbolTableRecord
100
AcDbTextStyleTableRecord
  2
Standard
 70
     0
 40
0.0
 41
1.0
 50
0.0
 71
     0
 42
0.2
  3
txt
  4

  0
STYLE
  5
5A
330
3
100
AcDbSymbolTableRecord
100
AcDbTextStyleTableRecord
  2
Annotative
 70
     0
 40
0.0
 41
1.0
 50
0.0
 71
     0
 42
0.2
  3
txt
  4

1001
AcadAnnotative
1000
AnnotativeData
1002
{
1070
     1
1070
     1
1002
}
  0
ENDTAB
  0
TABLE
  2
VIEW
  5
6
330
0
100
AcDbSymbolTable
 70
     0
  0
ENDTAB
  0
TABLE
  2
UCS
  5
7
330
0
100
AcDbSymbolTable
 70
     0
  0
ENDTAB
  0
TABLE
  2
APPID
  5
9
330
0
100
AcDbSymbolTable
 70
     3
  0
APPID
  5
56
330
9
100
AcDbSymbolTableRecord
100
AcDbRegAppTableRecord
  2
ACAD
 70
     0
  0
APPID
  5
5E
330
9
100
AcDbSymbolTableRecord
100
AcDbRegAppTableRecord
  2
AcadAnnotative
 70
     0
  0
APPID
  5
E7
330
9
100
AcDbSymbolTableRecord
100
AcDbRegAppTableRecord
  2
ACAD_MLEADERVER
 70
     0
  0
ENDTAB
  0
TABLE
  2
DIMSTYLE
  5
A
330
0
100
AcDbSymbolTable
 70
     2
100
AcDbDimStyleTable
 71
     0
  0
DIMSTYLE
105
58
330
A
100
AcDbSymbolTableRecord
100
AcDbDimStyleTableRecord
  2
Standard
 70
     0
340
55
  0
DIMSTYLE
105
59
330
A
100
AcDbSymbolTableRecord
100
AcDbDimStyleTableRecord
  2
Annotative
 70
     0
340
55
1001
AcadAnnotative
1000
AnnotativeData
1002
{
1070
     1
1070
     1
1002
}
  0
ENDTAB
  0
TABLE
  2
BLOCK_RECORD
  5
1
330
0
100
AcDbSymbolTable
 70
     2
  0
BLOCK_RECORD
  5
70
330
1
100
AcDbSymbolTableRecord
100
AcDbBlockTableRecord
  2
*Model_Space
340
73
  0
BLOCK_RECORD
  5
6C
330
1
100
AcDbSymbolTableRecord
100
AcDbBlockTableRecord
  2
*Paper_Space
340
6F
  0
BLOCK_RECORD
  5
74
330
1
100
AcDbSymbolTableRecord
100
AcDbBlockTableRecord
  2
*Paper_Space0
340
77
  0
BLOCK_RECORD
  5
7A
330
1
100
AcDbSymbolTableRecord
100
AcDbBlockTableRecord
  2
Block_0
340
0
102
{BLKREFS
331
7B
102
}
  0
ENDTAB
  0
ENDSEC
  0
SECTION
  2
BLOCKS
  0
BLOCK
  5
71
330
70
100
AcDbEntity
  8
0
100
AcDbBlockBegin
  2
*Model_Space
 70
     0
 10
0.0
 20
0.0
 30
0.0
  3
*Model_Space
  1

  0
ENDBLK
  5
72
330
70
100
AcDbEntity
  8
0
100
AcDbBlockEnd
  0
BLOCK
  5
6D
330
6C
100
AcDbEntity
 67
     1
  8
0
100
AcDbBlockBegin
  2
*Paper_Space
 70
     0
 10
0.0
 20
0.0
 30
0.0
  3
*Paper_Space
  1

  0
ENDBLK
  5
6E
330
6C
100
AcDbEntity
 67
     1
  8
0
100
AcDbBlockEnd
  0
BLOCK
  5
75
330
74
100
AcDbEntity
 67
     1
  8
0
100
AcDbBlockBegin
  2
*Paper_Space0
 70
     0
 10
0.0
 20
0.0
 30
0.0
  3
*Paper_Space0
  1

  0
ENDBLK
  5
76
330
74
100
AcDbEntity
 67
     1
  8
0
100
AcDbBlockEnd
  0
BLOCK
  5
7C
330
7A
100
AcDbEntity
  8
0
100
AcDbBlockBegin
  2
Block_0
 70
     0
 10
0.0
 20
0.0
 30
0.0
  3
Block_0
  1

  0
SPLINE
  5
7E
330
7A
100
AcDbEntity
  8
Livello 1
100
AcDbSpline
210
0.0
220
0.0
230
1.0
 70
     9
 71
     3
 72
    20
 73
    16
 74
     0
 42
0.0000000001
 43
0.0000000001
 40
0.0
 40
0.0
 40
0.0
 40
0.0
 40
1.0
 40
1.0
 40
1.0
 40
2.0
 40
2.0
 40
2.0
 40
3.0
 40
3.0
 40
3.0
 40
4.0
 40
4.0
 40
4.0
 40
5.0
 40
5.0
 40
5.0
 40
5.0
 10
394.5457140680304
 20
-189.1057868971678
 30
0.0
 10
394.9127440679387
 20
-188.5331932862003
 30
0.0
 10
395.275329067848
 20
-187.966455786342
 30
0.0
 10
395.6320932344254
 20
-187.4087846753698
 30
0.0
 10
396.8639579563394
 20
-185.4829355091845
 30
0.0
 10
398.0643901782614
 20
-183.6063693985431
 30
0.0
 10
399.2204429557503
 20
-181.8407518989845
 30
0.0
 10
400.4857157332118
 20
-183.9915674540022
 30
0.0
 10
401.6494943440319
 20
-186.3576480089663
 30
0.0
 10
402.6635187882231
 20
-188.8519280083423
 30
0.0
 10
404.7339010099277
 20
-193.9450866181806
 30
0.0
 10
406.05339573182
 20
-199.3075205057289
 30
0.0
 10
406.5422751761421
 20
-204.3506199489123
 30
0.0
 10
403.580247121327
 20
-198.3933674504019
 30
0.0
 10
399.5145185112323
 20
-193.2290535628037
 30
0.0
 10
394.5457140680304
 20
-189.1057868971678
 30
0.0
  0
SPLINE
  5
7F
330
7A
100
AcDbEntity
  8
Livello 1
100
AcDbSpline
210
0.0
220
0.0
230
1.0
 70
     9
 71
     3
 72
    35
 73
    31
 74
     0
 42
0.0000000001
 43
0.0000000001
 40
0.0
 40
0.0
 40
0.0
 40
0.0
 40
1.0
 40
1.0
 40
1.0
 40
2.0
 40
2.0
 40
2.0
 40
3.0
 40
3.0
 40
3.0
 40
4.0
 40
4.0
 40
4.0
 40
5.0
 40
5.0
 40
5.0
 40
6.0
 40
6.0
 40
6.0
 40
7.0
 40
7.0
 40
7.0
 40
8.0
 40
8.0
 40
8.0
 40
9.0
 40
9.0
 40
9.0
 40
10.0
 40
10.0
 40
10.0
 40
10.0
 10
403.6676654546388
 20
-179.2243755107493
 30
0.0
 10
403.6676654546388
 20
-179.2243755107493
 30
0.0
 10
399.4543346223586
 20
-172.062986623651
 30
0.0
 10
399.4543346223586
 20
-172.062986623651
 30
0.0
 10
399.4543346223586
 20
-172.062986623651
 30
0.0
 10
394.9032543457186
 20
-179.0144374552461
 30
0.0
 10
394.9032543457186
 20
-179.0144374552461
 30
0.0
 10
393.7377118460103
 20
-180.7946952325792
 30
0.0
 10
392.5549185129725
 20
-182.6438505098949
 30
0.0
 10
391.3026632355078
 20
-184.6013085649608
 30
0.0
 10
391.3026632355078
 20
-184.6013085649608
 30
0.0
 10
390.567439069025
 20
-185.7506585646734
 30
0.0
 10
390.2013262913387
 20
-186.321982175642
 30
0.0
 10
390.2013262913387
 20
-186.321982175642
 30
0.0
 10
387.7397135141762
 20
-190.163132452459
 30
0.0
 10
387.7397135141762
 20
-190.163132452459
 30
0.0
 10
387.7397135141762
 20
-190.163132452459
 30
0.0
 10
391.2506990688541
 20
-193.0766535628422
 30
0.0
 10
391.2506990688541
 20
-193.0766535628422
 30
0.0
 10
395.6828226788572
 20
-196.7546793952561
 30
0.0
 10
399.2731479557372
 20
-201.3205763385589
 30
0.0
 10
401.9219798995193
 20
-206.6478382816714
 30
0.0
 10
401.9219798995193
 20
-206.6478382816714
 30
0.0
 10
411.6781198970807
 20
-203.8527799490366
 30
0.0
 10
411.6781198970807
 20
-203.8527799490366
 30
0.0
 10
411.1344893416606
 20
-198.2451655059941
 30
0.0
 10
409.6702498975826
 20
-192.386020507459
 30
0.0
 10
407.4435871203617
 20
-186.9086516199392
 30
0.0
 10
406.3381579539713
 20
-184.1894052317302
 30
0.0
 10
405.0677698987327
 20
-181.603967454599
 30
0.0
 10
403.6676654546388
 20
-179.2243755107493
 30
0.0
  0
HATCH
  5
80
330
7A
100
AcDbEntity
  8
Livello 1
 62
   250
440
 33554687
100
AcDbHatch
 10
0.0
 20
0.0
 30
0.0
210
0.0
220
0.0
230
1.0
  2
SOLID
 70
     1
 71
     1
 91
        2
 92
        1
 93
        1
 72
     4
 94
        3
 73
     0
 74
     0
 95
       20
 96
       16
 40
0.0
 40
0.0
 40
0.0
 40
0.0
 40
1.0
 40
1.0
 40
1.0
 40
2.0
 40
2.0
 40
2.0
 40
3.0
 40
3.0
 40
3.0
 40
4.0
 40
4.0
 40
4.0
 40
5.0
 40
5.0
 40
5.0
 40
5.0
 10
394.5457140680304
 20
-189.1057868971678
 10
394.9127440679387
 20
-188.5331932862003
 10
395.275329067848
 20
-187.966455786342
 10
395.6320932344254
 20
-187.4087846753698
 10
396.8639579563394
 20
-185.4829355091845
 10
398.0643901782614
 20
-183.6063693985431
 10
399.2204429557503
 20
-181.8407518989845
 10
400.4857157332118
 20
-183.9915674540022
 10
401.6494943440319
 20
-186.3576480089663
 10
402.6635187882231
 20
-188.8519280083423
 10
404.7339010099277
 20
-193.9450866181806
 10
406.05339573182
 20
-199.3075205057289
 10
406.5422751761421
 20
-204.3506199489123
 10
403.580247121327
 20
-198.3933674504019
 10
399.5145185112323
 20
-193.2290535628037
 10
394.5457140680304
 20
-189.1057868971678
 97
        1
330
7E
 92
        1
 93
        1
 72
     4
 94
        3
 73
     0
 74
     0
 95
       35
 96
       31
 40
0.0
 40
0.0
 40
0.0
 40
0.0
 40
1.0
 40
1.0
 40
1.0
 40
2.0
 40
2.0
 40
2.0
 40
3.0
 40
3.0
 40
3.0
 40
4.0
 40
4.0
 40
4.0
 40
5.0
 40
5.0
 40
5.0
 40
6.0
 40
6.0
 40
6.0
 40
7.0
 40
7.0
 40
7.0
 40
8.0
 40
8.0
 40
8.0
 40
9.0
 40
9.0
 40
9.0
 40
10.0
 40
10.0
 40
10.0
 40
10.0
 10
403.6676654546388
 20
-179.2243755107493
 10
403.6676654546388
 20
-179.2243755107493
 10
399.4543346223586
 20
-172.062986623651
 10
399.4543346223586
 20
-172.062986623651
 10
399.4543346223586
 20
-172.062986623651
 10
394.9032543457186
 20
-179.0144374552461
 10
394.9032543457186
 20
-179.0144374552461
 10
393.7377118460103
 20
-180.7946952325792
 10
392.5549185129725
 20
-182.6438505098949
 10
391.3026632355078
 20
-184.6013085649608
 10
391.3026632355078
 20
-184.6013085649608
 10
390.567439069025
 20
-185.7506585646734
 10
390.2013262913387
 20
-186.321982175642
 10
390.2013262913387
 20
-186.321982175642
 10
387.7397135141762
 20
-190.163132452459
 10
387.7397135141762
 20
-190.163132452459
 10
387.7397135141762
 20
-190.163132452459
 10
391.2506990688541
 20
-193.0766535628422
 10
391.2506990688541
 20
-193.0766535628422
 10
395.6828226788572
 20
-196.7546793952561
 10
399.2731479557372
 20
-201.3205763385589
 10
401.9219798995193
 20
-206.6478382816714
 10
401.9219798995193
 20
-206.6478382816714
 10
411.6781198970807
 20
-203.8527799490366
 10
411.6781198970807
 20
-203.8527799490366
 10
411.1344893416606
 20
-198.2451655059941
 10
409.6702498975826
 20
-192.386020507459
 10
407.4435871203617
 20
-186.9086516199392
 10
406.3381579539713
 20
-184.1894052317302
 10
405.0677698987327
 20
-181.603967454599
 10
403.6676654546388
 20
-179.2243755107493
 97
        1
330
7F
 75
     2
 76
     1
 98
        1
 10
0.0
 20
0.0
450
        0
451
        0
460
0.0
461
0.0
452
        0
462
0.0
453
        0
470

  0
SPLINE
  5
81
330
7A
100
AcDbEntity
  8
Livello 1
100
AcDbSpline
210
0.0
220
0.0
230
1.0
 70
     9
 71
     3
 72
    83
 73
    79
 74
     0
 42
0.0000000001
 43
0.0000000001
 40
0.0
 40
0.0
 40
0.0
 40
0.0
 40
1.0
 40
1.0
 40
1.0
 40
2.0
 40
2.0
 40
2.0
 40
3.0
 40
3.0
 40
3.0
 40
4.0
 40
4.0
 40
4.0
 40
5.0
 40
5.0
 40
5.0
 40
6.0
 40
6.0
 40
6.0
 40
7.0
 40
7.0
 40
7.0
 40
8.0
 40
8.0
 40
8.0
 40
9.0
 40
9.0
 40
9.0
 40
10.0
 40
10.0
 40
10.0
 40
11.0
 40
11.0
 40
11.0
 40
12.0
 40
12.0
 40
12.0
 40
13.0
 40
13.0
 40
13.0
 40
14.0
 40
14.0
 40
14.0
 40
15.0
 40
15.0
 40
15.0
 40
16.0
 40
16.0
 40
16.0
 40
17.0
 40
17.0
 40
17.0
 40
18.0
 40
18.0
 40
18.0
 40
19.0
 40
19.0
 40
19.0
 40
20.0
 40
20.0
 40
20.0
 40
21.0
 40
21.0
 40
21.0
 40
22.0
 40
22.0
 40
22.0
 40
23.0
 40
23.0
 40
23.0
 40
24.0
 40
24.0
 40
24.0
 40
25.0
 40
25.0
 40
25.0
 40
26.0
 40
26.0
 40
26.0
 40
26.0
 10
-97.38077775343256
 20
-174.9624671784814
 30
0.0
 10
-97.63971664225685
 20
-175.15081523399
 30
0.0
 10
-97.89008303108296
 20
-175.3499582894959
 30
0.0
 10
-98.13251191991135
 20
-175.5590849561104
 30
0.0
 10
-98.2517155309925
 20
-175.6619902338624
 30
0.0
 10
-98.3689788642966
 20
-175.7670121782803
 30
0.0
 10
-98.48458414204541
 20
-175.8738685671427
 30
0.0
 10
-98.5079027531507
 20
-175.8954232893592
 30
0.0
 10
-98.53644247536577
 20
-175.9234338449079
 30
0.0
 10
-98.56653441980292
 20
-175.9537021782339
 30
0.0
 10
-98.60184747534951
 20
-175.991378844891
 30
0.0
 10
-98.63208053089737
 20
-176.0236227337716
 30
0.0
 10
-98.65786858644668
 20
-176.051033567098
 30
0.0
 10
-99.08783414189461
 20
-176.5096446780949
 30
0.0
 10
-99.51691775289846
 20
-176.9647985668698
 30
0.0
 10
-99.91855525279806
 20
-177.451067455637
 30
0.0
 10
-101.0314985858532
 20
-178.7982905108558
 30
0.0
 10
-102.0245327522717
 20
-180.2431977327172
 30
0.0
 10
-102.95558386315
 20
-181.7205252323479
 30
0.0
 10
-103.189016918647
 20
-182.0909771766993
 30
0.0
 10
-103.4138069185909
 20
-182.4666502321613
 30
0.0
 10
-103.6440296963112
 20
-182.8391482876235
 30
0.0
 10
-103.2208374741948
 20
-182.1545124544617
 30
0.0
 10
-103.6266730296488
 20
-182.8123371765195
 30
0.0
 10
-103.7116571962944
 20
-182.9569760653721
 30
0.0
 10
-103.816749696268
 20
-183.1357991208824
 30
0.0
 10
-103.9209602517975
 20
-183.3150455097269
 30
0.0
 10
-104.0245358073272
 20
-183.4947505096816
 30
0.0
 10
-104.4957410849873
 20
-184.3125246761439
 30
0.0
 10
-104.9519533070952
 20
-185.1390477314928
 30
0.0
 10
-105.3958183069843
 20
-185.9720971757295
 30
0.0
 10
-106.320237195642
 20
-187.7068466197397
 30
0.0
 10
-107.1916335843132
 20
-189.4695713415218
 30
0.0
 10
-108.0232719174386
 20
-191.2504993966316
 30
0.0
 10
-109.8048349725489
 20
-195.0655793956782
 30
0.0
 10
-111.40912719437
 20
-198.9640207835924
 30
0.0
 10
-112.863171360673
 20
-202.9152024492711
 30
0.0
 10
-113.5794160827163
 20
-204.861265782118
 30
0.0
 10
-114.2579841381022
 20
-206.8213343927391
 30
0.0
 10
-114.8939366379433
 20
-208.7951966144677
 30
0.0
 10
-115.1958438600898
 20
-209.7325624475668
 30
0.0
 10
-115.4881555266836
 20
-210.6730327251095
 30
0.0
 10
-115.7693899710578
 20
-211.6168191137627
 30
0.0
 10
-115.8413213599285
 20
-211.8582602248135
 30
0.0
 10
-115.9120533043552
 20
-212.0999482803082
 30
0.0
 10
-115.982926359893
 20
-212.3416716135811
 30
0.0
 10
-116.0104783043308
 20
-212.4387913357794
 30
0.0
 10
-116.0382771932128
 20
-212.5358405024214
 30
0.0
 10
-116.0657938598724
 20
-212.6330307801748
 30
0.0
 10
-116.1897952487302
 20
-213.0708985578432
 30
0.0
 10
-116.3111860820333
 20
-213.5095424466229
 30
0.0
 10
-116.4297899708925
 20
-213.9488918909575
 30
0.0
 10
-117.2707063595712
 20
-217.0643782790674
 30
0.0
 10
-118.0122099704968
 20
-220.2335221671637
 30
0.0
 10
-118.3672808037415
 20
-223.4454227219165
 30
0.0
 10
-118.5112846925944
 20
-224.7483016104796
 30
0.0
 10
-119.8161391367126
 20
-225.5395116102818
 30
0.0
 10
-121.036221080852
 20
-225.4098657769807
 30
0.0
 10
-122.3292927471953
 20
-225.2724941103484
 30
0.0
 10
-123.1350371914385
 20
-223.9564566106775
 30
0.0
 10
-123.0006288581387
 20
-222.7408902220925
 30
0.0
 10
-122.5886549693528
 20
-219.013158000802
 30
0.0
 10
-121.6710799695823
 20
-215.3385893906101
 30
0.0
 10
-120.6451669142833
 20
-211.7383510581765
 30
0.0
 10
-118.3120710815331
 20
-203.5503082824459
 30
0.0
 10
-115.3034410822852
 20
-195.5235907844521
 30
0.0
 10
-111.5963110832121
 20
-187.856671341925
 30
0.0
 10
-109.9019546947466
 20
-184.3524238428008
 30
0.0
 10
-108.0456733063219
 20
-180.9047618992183
 30
0.0
 10
-105.8861794179729
 20
-177.6629105111397
 30
0.0
 10
-104.3177646961429
 20
-175.3085069006173
 30
0.0
 10
-102.5152819188157
 20
-172.9035149567739
 30
0.0
 10
-100.2058574749485
 20
-171.2234813460833
 30
0.0
 10
-99.14480775299153
 20
-170.4516741240535
 30
0.0
 10
-97.74427997556379
 20
-170.6878588462167
 30
0.0
 10
-96.92385997576918
 20
-171.6804344015245
 30
0.0
 10
-96.12774636485713
 20
-172.643517734617
 30
0.0
 10
-96.38897830923623
 20
-174.2410013453287
 30
0.0
 10
-97.38077775343256
 20
-174.9624671784814
 30
0.0
  0
SPLINE
  5
82
330
7A
100
AcDbEntity
  8
Livello 1
100
AcDbSpline
210
0.0
220
0.0
230
1.0
 70
     9
 71
     3
 72
    98
 73
    94
 74
     0
 42
0.0000000001
 43
0.0000000001
 40
0.0
 40
0.0
 40
0.0
 40
0.0
 40
1.0
 40
1.0
 40
1.0
 40
2.0
 40
2.0
 40
2.0
 40
3.0
 40
3.0
 40
3.0
 40
4.0
 40
4.0
 40
4.0
 40
5.0
 40
5.0
 40
5.0
 40
6.0
 40
6.0
 40
6.0
 40
7.0
 40
7.0
 40
7.0
 40
8.0
 40
8.0
 40
8.0
 40
9.0
 40
9.0
 40
9.0
 40
10.0
 40
10.0
 40
10.0
 40
11.0
 40
11.0
 40
11.0
 40
12.0
 40
12.0
 40
12.0
 40
13.0
 40
13.0
 40
13.0
 40
14.0
 40
14.0
 40
14.0
 40
15.0
 40
15.0
 40
15.0
 40
16.0
 40
16.0
 40
16.0
 40
17.0
 40
17.0
 40
17.0
 40
18.0
 40
18.0
 40
18.0
 40
19.0
 40
19.0
 40
19.0
 40
20.0
 40
20.0
 40
20.0
 40
21.0
 40
21.0
 40
21.0
 40
22.0
 40
22.0
 40
22.0
 40
23.0
 40
23.0
 40
23.0
 40
24.0
 40
24.0
 40
24.0
 40
25.0
 40
25.0
 40
25.0
 40
26.0
 40
26.0
 40
26.0
 40
27.0
 40
27.0
 40
27.0
 40
28.0
 40
28.0
 40
28.0
 40
29.0
 40
29.0
 40
29.0
 40
30.0
 40
30.0
 40
30.0
 40
31.0
 40
31.0
 40
31.0
 40
31.0
 10
-99.69821025285312
 20
-165.6571419030299
 30
0.0
 10
-100.9702563636463
 20
-165.808060236326
 30
0.0
 10
-102.1954183077844
 20
-166.28995468065
 30
0.0
 10
-103.2413691408562
 20
-167.0508257915704
 30
0.0
 10
-106.276916084542
 20
-169.2591088465741
 30
0.0
 10
-108.4525319173313
 20
-172.2084721791699
 30
0.0
 10
-110.1804727502328
 20
-174.8022707896329
 30
0.0
 10
-112.2305349719422
 20
-177.8797982888631
 30
0.0
 10
-114.2131813603355
 20
-181.4153018990909
 30
0.0
 10
-116.2417946931616
 20
-185.6104646758196
 30
0.0
 10
-119.9965144144454
 20
-193.3759855072119
 30
0.0
 10
-123.1476313581019
 20
-201.6909577273553
 30
0.0
 10
-125.6075860797092
 20
-210.3244530029742
 30
0.0
 10
-126.5865796905755
 20
-213.7605085576707
 30
0.0
 10
-127.6520744125313
 20
-217.8554824455364
 30
0.0
 10
-128.1294180235232
 20
-222.1737999444564
 30
0.0
 10
-128.3526910790228
 20
-224.1948285550623
 30
0.0
 10
-127.7485591347295
 20
-226.2639407767673
 30
0.0
 10
-126.4718916350486
 20
-227.8506646652592
 30
0.0
 10
-125.2404855242453
 20
-229.3813321648768
 30
0.0
 10
-123.5035488580128
 20
-230.3368307757493
 30
0.0
 10
-121.5811216362714
 20
-230.5408421645869
 30
0.0
 10
-121.0128319141913
 20
-230.6012729979051
 30
0.0
 10
-120.4346996921134
 20
-230.5976746645731
 30
0.0
 10
-119.8628821922564
 20
-230.5296591090343
 30
0.0
 10
-116.3404313598039
 20
-230.111687998028
 30
0.0
 10
-113.6164930271514
 20
-227.4316352209197
 30
0.0
 10
-113.2386327494681
 20
-224.0121954995523
 30
0.0
 10
-112.8925930273325
 20
-220.8821746670017
 30
0.0
 10
-112.1000777497528
 20
-217.7087621677953
 30
0.0
 10
-111.4481444165824
 20
-215.2937160572876
 30
0.0
 10
-111.3350085832773
 20
-214.8742985573928
 30
0.0
 10
-111.2191916388618
 20
-214.4559746686081
 30
0.0
 10
-111.1009758055579
 20
-214.0383210576014
 30
0.0
 10
-111.1009758055579
 20
-214.0383210576014
 30
0.0
 10
-111.0058316389151
 20
-213.7063924465734
 30
0.0
 10
-111.0058316389151
 20
-213.7063924465734
 30
0.0
 10
-110.9455771944858
 20
-213.5007230021802
 30
0.0
 10
-110.8853933056121
 20
-213.2950182800094
 30
0.0
 10
-110.8241863611827
 20
-213.089631057839
 30
0.0
 10
-110.5625663612483
 20
-212.2116730025029
 30
0.0
 10
-110.2793210835411
 20
-211.2989663360645
 30
0.0
 10
-109.9824233058377
 20
-210.3768757807391
 30
0.0
 10
-109.3828421948765
 20
-208.5157966145378
 30
0.0
 10
-108.7226891394861
 20
-206.6046230039046
 30
0.0
 10
-108.0207319174392
 20
-204.6973652266037
 30
0.0
 10
-106.5722969178012
 20
-200.7612824498099
 30
0.0
 10
-105.0001780293053
 20
-196.9715671729794
 30
0.0
 10
-103.3480491408297
 20
-193.4337705071969
 30
0.0
 10
-102.5036755299296
 20
-191.6254668965381
 30
0.0
 10
-101.6840669190234
 20
-189.9787002302833
 30
0.0
 10
-100.8421274747895
 20
-188.3989260640115
 30
0.0
 10
-100.4111035860083
 20
-187.5898302308805
 30
0.0
 10
-99.97753969722772
 20
-186.8066282866317
 30
0.0
 10
-99.55346553066725
 20
-186.070310509038
 30
0.0
 10
-99.45747469735785
 20
-185.9036935646354
 30
0.0
 10
-99.36042553071551
 20
-185.7369355091215
 30
0.0
 10
-99.26288247518435
 20
-185.5707771758298
 30
0.0
 10
-99.22993303074791
 20
-185.5154616202879
 30
0.0
 10
-99.15143997521205
 20
-185.3874738425418
 30
0.0
 10
-99.10250969744666
 20
-185.3073580092285
 30
0.0
 10
-99.07703914189729
 20
-185.2656596759059
 30
0.0
 10
-99.05216830857025
 20
-185.2238907870271
 30
0.0
 10
-99.02817941968727
 20
-185.1825452314823
 30
0.0
 10
-99.01205747524699
 20
-185.1562985648223
 30
0.0
 10
-98.99604136413989
 20
-185.1298755092729
 30
0.0
 10
-98.97998997525494
 20
-185.1036288426129
 30
0.0
 10
-98.8510144197316
 20
-184.8923149537768
 30
0.0
 10
-98.72214469754178
 20
-184.6810010649407
 30
0.0
 10
-98.59013525313027
 20
-184.4714510649934
 30
0.0
 10
-97.63530692003548
 20
-182.9563410653723
 30
0.0
 10
-96.79333219802375
 20
-181.7698082878911
 30
0.0
 10
-95.94049192045934
 20
-180.737404121482
 30
0.0
 10
-95.65805803164089
 20
-180.3954566215679
 30
0.0
 10
-95.31187719839428
 20
-180.0262393994381
 30
0.0
 10
-94.94527053181922
 20
-179.6354674550912
 30
0.0
 10
-94.94527053181922
 20
-179.6354674550912
 30
0.0
 10
-94.90491275405171
 20
-179.5923932884351
 30
0.0
 10
-94.90491275405171
 20
-179.5923932884351
 30
0.0
 10
-94.8560883096192
 20
-179.5482607884464
 30
0.0
 10
-94.81015664296418
 20
-179.5075502329008
 30
0.0
 10
-94.76366053186465
 20
-179.4675099551333
 30
0.0
 10
-94.6253010874547
 20
-179.348165232941
 30
0.0
 10
-94.48517775415661
 20
-179.2368285663016
 30
0.0
 10
-94.34473692085827
 20
-179.1347699552165
 30
0.0
 10
-92.70622525460135
 20
-177.9425574555143
 30
0.0
 10
-91.61635358820689
 20
-176.0734702337596
 30
0.0
 10
-91.35554497716125
 20
-174.0067569009426
 30
0.0
 10
-91.09886386611425
 20
-171.9729930125623
 30
0.0
 10
-91.67886581041351
 20
-169.9267760686292
 30
0.0
 10
-92.94667858787454
 20
-168.392933569013
 30
0.0
 10
-94.61380053190218
 20
-166.3761735695172
 30
0.0
 10
-97.1377491423822
 20
-165.3533296808839
 30
0.0
 10
-99.69821025285312
 20
-165.6571419030299
 30
0.0
  0
HATCH
  5
83
330
7A
100
AcDbEntity
  8
Livello 1
 62
   250
440
 33554687
100
AcDbHatch
 10
0.0
 20
0.0
 30
0.0
210
0.0
220
0.0
230
1.0
  2
SOLID
 70
     1
 71
     1
 91
        2
 92
        1
 93
        1
 72
     4
 94
        3
 73
     0
 74
     0
 95
       83
 96
       79
 40
0.0
 40
0.0
 40
0.0
 40
0.0
 40
1.0
 40
1.0
 40
1.0
 40
2.0
 40
2.0
 40
2.0
 40
3.0
 40
3.0
 40
3.0
 40
4.0
 40
4.0
 40
4.0
 40
5.0
 40
5.0
 40
5.0
 40
6.0
 40
6.0
 40
6.0
 40
7.0
 40
7.0
 40
7.0
 40
8.0
 40
8.0
 40
8.0
 40
9.0
 40
9.0
 40
9.0
 40
10.0
 40
10.0
 40
10.0
 40
11.0
 40
11.0
 40
11.0
 40
12.0
 40
12.0
 40
12.0
 40
13.0
 40
13.0
 40
13.0
 40
14.0
 40
14.0
 40
14.0
 40
15.0
 40
15.0
 40
15.0
 40
16.0
 40
16.0
 40
16.0
 40
17.0
 40
17.0
 40
17.0
 40
18.0
 40
18.0
 40
18.0
 40
19.0
 40
19.0
 40
19.0
 40
20.0
 40
20.0
 40
20.0
 40
21.0
 40
21.0
 40
21.0
 40
22.0
 40
22.0
 40
22.0
 40
23.0
 40
23.0
 40
23.0
 40
24.0
 40
24.0
 40
24.0
 40
25.0
 40
25.0
 40
25.0
 40
26.0
 40
26.0
 40
26.0
 40
26.0
 10
-97.38077775343256
 20
-174.9624671784814
 10
-97.63971664225685
 20
-175.15081523399
 10
-97.89008303108296
 20
-175.3499582894959
 10
-98.13251191991135
 20
-175.5590849561104
 10
-98.2517155309925
 20
-175.6619902338624
 10
-98.3689788642966
 20
-175.7670121782803
 10
-98.48458414204541
 20
-175.8738685671427
 10
-98.5079027531507
 20
-175.8954232893592
 10
-98.53644247536577
 20
-175.9234338449079
 10
-98.56653441980292
 20
-175.9537021782339
 10
-98.60184747534951
 20
-175.991378844891
 10
-98.63208053089737
 20
-176.0236227337716
 10
-98.65786858644668
 20
-176.051033567098
 10
-99.08783414189461
 20
-176.5096446780949
 10
-99.51691775289846
 20
-176.9647985668698
 10
-99.91855525279806
 20
-177.451067455637
 10
-101.0314985858532
 20
-178.7982905108558
 10
-102.0245327522717
 20
-180.2431977327172
 10
-102.95558386315
 20
-181.7205252323479
 10
-103.189016918647
 20
-182.0909771766993
 10
-103.4138069185909
 20
-182.4666502321613
 10
-103.6440296963112
 20
-182.8391482876235
 10
-103.2208374741948
 20
-182.1545124544617
 10
-103.6266730296488
 20
-182.8123371765195
 10
-103.7116571962944
 20
-182.9569760653721
 10
-103.816749696268
 20
-183.1357991208824
 10
-103.9209602517975
 20
-183.3150455097269
 10
-104.0245358073272
 20
-183.4947505096816
 10
-104.4957410849873
 20
-184.3125246761439
 10
-104.9519533070952
 20
-185.1390477314928
 10
-105.3958183069843
 20
-185.9720971757295
 10
-106.320237195642
 20
-187.7068466197397
 10
-107.1916335843132
 20
-189.4695713415218
 10
-108.0232719174386
 20
-191.2504993966316
 10
-109.8048349725489
 20
-195.0655793956782
 10
-111.40912719437
 20
-198.9640207835924
 10
-112.863171360673
 20
-202.9152024492711
 10
-113.5794160827163
 20
-204.861265782118
 10
-114.2579841381022
 20
-206.8213343927391
 10
-114.8939366379433
 20
-208.7951966144677
 10
-115.1958438600898
 20
-209.7325624475668
 10
-115.4881555266836
 20
-210.6730327251095
 10
-115.7693899710578
 20
-211.6168191137627
 10
-115.8413213599285
 20
-211.8582602248135
 10
-115.9120533043552
 20
-212.0999482803082
 10
-115.982926359893
 20
-212.3416716135811
 10
-116.0104783043308
 20
-212.4387913357794
 10
-116.0382771932128
 20
-212.5358405024214
 10
-116.0657938598724
 20
-212.6330307801748
 10
-116.1897952487302
 20
-213.0708985578432
 10
-116.3111860820333
 20
-213.5095424466229
 10
-116.4297899708925
 20
-213.9488918909575
 10
-117.2707063595712
 20
-217.0643782790674
 10
-118.0122099704968
 20
-220.2335221671637
 10
-118.3672808037415
 20
-223.4454227219165
 10
-118.5112846925944
 20
-224.7483016104796
 10
-119.8161391367126
 20
-225.5395116102818
 10
-121.036221080852
 20
-225.4098657769807
 10
-122.3292927471953
 20
-225.2724941103484
 10
-123.1350371914385
 20
-223.9564566106775
 10
-123.0006288581387
 20
-222.7408902220925
 10
-122.5886549693528
 20
-219.013158000802
 10
-121.6710799695823
 20
-215.3385893906101
 10
-120.6451669142833
 20
-211.7383510581765
 10
-118.3120710815331
 20
-203.5503082824459
 10
-115.3034410822852
 20
-195.5235907844521
 10
-111.5963110832121
 20
-187.856671341925
 10
-109.9019546947466
 20
-184.3524238428008
 10
-108.0456733063219
 20
-180.9047618992183
 10
-105.8861794179729
 20
-177.6629105111397
 10
-104.3177646961429
 20
-175.3085069006173
 10
-102.5152819188157
 20
-172.9035149567739
 10
-100.2058574749485
 20
-171.2234813460833
 10
-99.14480775299153
 20
-170.4516741240535
 10
-97.74427997556379
 20
-170.6878588462167
 10
-96.92385997576918
 20
-171.6804344015245
 10
-96.12774636485713
 20
-172.643517734617
 10
-96.38897830923623
 20
-174.2410013453287
 10
-97.38077775343256
 20
-174.9624671784814
 97
        1
330
81
 92
        1
 93
        1
 72
     4
 94
        3
 73
     0
 74
     0
 95
       98
 96
       94
 40
0.0
 40
0.0
 40
0.0
 40
0.0
 40
1.0
 40
1.0
 40
1.0
 40
2.0
 40
2.0
 40
2.0
 40
3.0
 40
3.0
 40
3.0
 40
4.0
 40
4.0
 40
4.0
 40
5.0
 40
5.0
 40
5.0
 40
6.0
 40
6.0
 40
6.0
 40
7.0
 40
7.0
 40
7.0
 40
8.0
 40
8.0
 40
8.0
 40
9.0
 40
9.0
 40
9.0
 40
10.0
 40
10.0
 40
10.0
 40
11.0
 40
11.0
 40
11.0
 40
12.0
 40
12.0
 40
12.0
 40
13.0
 40
13.0
 40
13.0
 40
14.0
 40
14.0
 40
14.0
 40
15.0
 40
15.0
 40
15.0
 40
16.0
 40
16.0
 40
16.0
 40
17.0
 40
17.0
 40
17.0
 40
18.0
 40
18.0
 40
18.0
 40
19.0
 40
19.0
 40
19.0
 40
20.0
 40
20.0
 40
20.0
 40
21.0
 40
21.0
 40
21.0
 40
22.0
 40
22.0
 40
22.0
 40
23.0
 40
23.0
 40
23.0
 40
24.0
 40
24.0
 40
24.0
 40
25.0
 40
25.0
 40
25.0
 40
26.0
 40
26.0
 40
26.0
 40
27.0
 40
27.0
 40
27.0
 40
28.0
 40
28.0
 40
28.0
 40
29.0
 40
29.0
 40
29.0
 40
30.0
 40
30.0
 40
30.0
 40
31.0
 40
31.0
 40
31.0
 40
31.0
 10
-99.69821025285312
 20
-165.6571419030299
 10
-100.9702563636463
 20
-165.808060236326
 10
-102.1954183077844
 20
-166.28995468065
 10
-103.2413691408562
 20
-167.0508257915704
 10
-106.276916084542
 20
-169.2591088465741
 10
-108.4525319173313
 20
-172.2084721791699
 10
-110.1804727502328
 20
-174.8022707896329
 10
-112.2305349719422
 20
-177.8797982888631
 10
-114.2131813603355
 20
-181.4153018990909
 10
-116.2417946931616
 20
-185.6104646758196
 10
-119.9965144144454
 20
-193.3759855072119
 10
-123.1476313581019
 20
-201.6909577273553
 10
-125.6075860797092
 20
-210.3244530029742
 10
-126.5865796905755
 20
-213.7605085576707
 10
-127.6520744125313
 20
-217.8554824455364
 10
-128.1294180235232
 20
-222.1737999444564
 10
-128.3526910790228
 20
-224.1948285550623
 10
-127.7485591347295
 20
-226.2639407767673
 10
-126.4718916350486
 20
-227.8506646652592
 10
-125.2404855242453
 20
-229.3813321648768
 10
-123.5035488580128
 20
-230.3368307757493
 10
-121.5811216362714
 20
-230.5408421645869
 10
-121.0128319141913
 20
-230.6012729979051
 10
-120.4346996921134
 20
-230.5976746645731
 10
-119.8628821922564
 20
-230.5296591090343
 10
-116.3404313598039
 20
-230.111687998028
 10
-113.6164930271514
 20
-227.4316352209197
 10
-113.2386327494681
 20
-224.0121954995523
 10
-112.8925930273325
 20
-220.8821746670017
 10
-112.1000777497528
 20
-217.7087621677953
 10
-111.4481444165824
 20
-215.2937160572876
 10
-111.3350085832773
 20
-214.8742985573928
 10
-111.2191916388618
 20
-214.4559746686081
 10
-111.1009758055579
 20
-214.0383210576014
 10
-111.1009758055579
 20
-214.0383210576014
 10
-111.0058316389151
 20
-213.7063924465734
 10
-111.0058316389151
 20
-213.7063924465734
 10
-110.9455771944858
 20
-213.5007230021802
 10
-110.8853933056121
 20
-213.2950182800094
 10
-110.8241863611827
 20
-213.089631057839
 10
-110.5625663612483
 20
-212.2116730025029
 10
-110.2793210835411
 20
-211.2989663360645
 10
-109.9824233058377
 20
-210.3768757807391
 10
-109.3828421948765
 20
-208.5157966145378
 10
-108.7226891394861
 20
-206.6046230039046
 10
-108.0207319174392
 20
-204.6973652266037
 10
-106.5722969178012
 20
-200.7612824498099
 10
-105.0001780293053
 20
-196.9715671729794
 10
-103.3480491408297
 20
-193.4337705071969
 10
-102.5036755299296
 20
-191.6254668965381
 10
-101.6840669190234
 20
-189.9787002302833
 10
-100.8421274747895
 20
-188.3989260640115
 10
-100.4111035860083
 20
-187.5898302308805
 10
-99.97753969722772
 20
-186.8066282866317
 10
-99.55346553066725
 20
-186.070310509038
 10
-99.45747469735785
 20
-185.9036935646354
 10
-99.36042553071551
 20
-185.7369355091215
 10
-99.26288247518435
 20
-185.5707771758298
 10
-99.22993303074791
 20
-185.5154616202879
 10
-99.15143997521205
 20
-185.3874738425418
 10
-99.10250969744666
 20
-185.3073580092285
 10
-99.07703914189729
 20
-185.2656596759059
 10
-99.05216830857025
 20
-185.2238907870271
 10
-99.02817941968727
 20
-185.1825452314823
 10
-99.01205747524699
 20
-185.1562985648223
 10
-98.99604136413989
 20
-185.1298755092729
 10
-98.97998997525494
 20
-185.1036288426129
 10
-98.8510144197316
 20
-184.8923149537768
 10
-98.72214469754178
 20
-184.6810010649407
 10
-98.59013525313027
 20
-184.4714510649934
 10
-97.63530692003548
 20
-182.9563410653723
 10
-96.79333219802375
 20
-181.7698082878911
 10
-95.94049192045934
 20
-180.737404121482
 10
-95.65805803164089
 20
-180.3954566215679
 10
-95.31187719839428
 20
-180.0262393994381
 10
-94.94527053181922
 20
-179.6354674550912
 10
-94.94527053181922
 20
-179.6354674550912
 10
-94.90491275405171
 20
-179.5923932884351
 10
-94.90491275405171
 20
-179.5923932884351
 10
-94.8560883096192
 20
-179.5482607884464
 10
-94.81015664296418
 20
-179.5075502329008
 10
-94.76366053186465
 20
-179.4675099551333
 10
-94.6253010874547
 20
-179.348165232941
 10
-94.48517775415661
 20
-179.2368285663016
 10
-94.34473692085827
 20
-179.1347699552165
 10
-92.70622525460135
 20
-177.9425574555143
 10
-91.61635358820689
 20
-176.0734702337596
 10
-91.35554497716125
 20
-174.0067569009426
 10
-91.09886386611425
 20
-171.9729930125623
 10
-91.67886581041351
 20
-169.9267760686292
 10
-92.94667858787454
 20
-168.392933569013
 10
-94.61380053190218
 20
-166.3761735695172
 10
-97.1377491423822
 20
-165.3533296808839
 10
-99.69821025285312
 20
-165.6571419030299
 97
        1
330
82
 75
     2
 76
     1
 98
        1
 10
0.0
 20
0.0
450
        0
451
        0
460
0.0
461
0.0
452
        0
462
0.0
453
        0
470

  0
SPLINE
  5
84
330
7A
100
AcDbEntity
  8
Livello 1
100
AcDbSpline
210
0.0
220
0.0
230
1.0
 70
     9
 71
     3
 72
   173
 73
   169
 74
     0
 42
0.0000000001
 43
0.0000000001
 40
0.0
 40
0.0
 40
0.0
 40
0.0
 40
1.0
 40
1.0
 40
1.0
 40
2.0
 40
2.0
 40
2.0
 40
3.0
 40
3.0
 40
3.0
 40
4.0
 40
4.0
 40
4.0
 40
5.0
 40
5.0
 40
5.0
 40
6.0
 40
6.0
 40
6.0
 40
7.0
 40
7.0
 40
7.0
 40
8.0
 40
8.0
 40
8.0
 40
9.0
 40
9.0
 40
9.0
 40
10.0
 40
10.0
 40
10.0
 40
11.0
 40
11.0
 40
11.0
 40
12.0
 40
12.0
 40
12.0
 40
13.0
 40
13.0
 40
13.0
 40
14.0
 40
14.0
 40
14.0
 40
15.0
 40
15.0
 40
15.0
 40
16.0
 40
16.0
 40
16.0
 40
17.0
 40
17.0
 40
17.0
 40
18.0
 40
18.0
 40
18.0
 40
19.0
 40
19.0
 40
19.0
 40
20.0
 40
20.0
 40
20.0
 40
21.0
 40
21.0
 40
21.0
 40
22.0
 40
22.0
 40
22.0
 40
23.0
 40
23.0
 40
23.0
 40
24.0
 40
24.0
 40
24.0
 40
25.0
 40
25.0
 40
25.0
 40
26.0
 40
26.0
 40
26.0
 40
27.0
 40
27.0
 40
27.0
 40
28.0
 40
28.0
 40
28.0
 40
29.0
 40
29.0
 40
29.0
 40
30.0
 40
30.0
 40
30.0
 40
31.0
 40
31.0
 40
31.0
 40
32.0
 40
32.0
 40
32.0
 40
33.0
 40
33.0
 40
33.0
 40
34.0
 40
34.0
 40
34.0
 40
35.0
 40
35.0
 40
35.0
 40
36.0
 40
36.0
 40
36.0
 40
37.0
 40
37.0
 40
37.0
 40
38.0
 40
38.0
 40
38.0
 40
39.0
 40
39.0
 40
39.0
 40
40.0
 40
40.0
 40
40.0
 40
41.0
 40
41.0
 40
41.0
 40
42.0
 40
42.0
 40
42.0
 40
43.0
 40
43.0
 40
43.0
 40
44.0
 40
44.0
 40
44.0
 40
45.0
 40
45.0
 40
45.0
 40
46.0
 40
46.0
 40
46.0
 40
47.0
 40
47.0
 40
47.0
 40
48.0
 40
48.0
 40
48.0
 40
49.0
 40
49.0
 40
49.0
 40
50.0
 40
50.0
 40
50.0
 40
51.0
 40
51.0
 40
51.0
 40
52.0
 40
52.0
 40
52.0
 40
53.0
 40
53.0
 40
53.0
 40
54.0
 40
54.0
 40
54.0
 40
55.0
 40
55.0
 40
55.0
 40
56.0
 40
56.0
 40
56.0
 40
56.0
 10
435.4927718355717
 20
-220.5983649448503
 30
0.0
 10
432.2840110030399
 20
-237.329274385112
 30
0.0
 10
421.9414132278483
 20
-251.7277582704012
 30
0.0
 10
403.8738640656981
 20
-264.6168118782902
 30
0.0
 10
388.0403507363236
 20
-275.9124740976888
 30
0.0
 10
369.2764535187923
 20
-283.8784785401417
 30
0.0
 10
354.1991546336724
 20
-290.2793490940966
 30
0.0
 10
331.2880993259142
 20
-300.0059615916649
 30
0.0
 10
309.0105360053734
 20
-305.9138604790771
 30
0.0
 10
284.0976874742864
 20
-308.8698913116716
 30
0.0
 10
284.0931719188461
 20
-308.8704204783383
 30
0.0
 10
284.0917608077709
 20
-308.8705968672272
 30
0.0
 10
284.0872805301074
 20
-308.8711260338932
 30
0.0
 10
248.2665081106381
 20
-313.1201579772753
 30
0.0
 10
208.4328885713229
 20
-310.7447288112031
 30
0.0
 10
166.258235758399
 20
-308.2284707562765
 30
0.0
 10
106.0598845164091
 20
-304.2949279794821
 30
0.0
 10
60.06997541193169
 20
-294.4335190930583
 30
0.0
 10
-31.55456110322244
 20
-274.7871482646364
 30
0.0
 10
-91.54406942155839
 20
-261.9239179900744
 30
0.0
 10
-121.7353560806774
 20
-253.0039318811933
 30
0.0
 10
-153.424396072755
 20
-231.0508529977928
 30
0.0
 10
-166.871967458282
 20
-221.7346621667883
 30
0.0
 10
-179.2098410663086
 20
-210.5842032806873
 30
0.0
 10
-191.1431138411032
 20
-196.9623596729814
 30
0.0
 10
-201.5035268940686
 20
-185.1356257870496
 30
0.0
 10
-209.829505780876
 20
-173.4456638455272
 30
0.0
 10
-217.1754680012617
 20
-163.1319232925506
 30
0.0
 10
-219.9843552227816
 20
-159.1882557935362
 30
0.0
 10
-222.6373852221185
 20
-155.463169405579
 30
0.0
 10
-225.1877216103698
 20
-152.0374855175464
 30
0.0
 10
-235.3381260522766
 20
-138.402589132066
 30
0.0
 10
-241.5646891062754
 20
-125.0906255242828
 30
0.0
 10
-243.6945496612985
 20
-112.4711999718821
 30
0.0
 10
-245.4563218830802
 20
-102.0322938633809
 30
0.0
 10
-244.40924216112
 20
-92.23018692138701
 30
0.0
 10
-240.5822735509656
 20
-83.33694136805467
 30
0.0
 10
-236.6872188297171
 20
-74.28603942587291
 30
0.0
 10
-230.8559432756194
 20
-68.38022192734944
 30
0.0
 10
-226.6499149433376
 20
-65.01951970596748
 30
0.0
 10
-221.5740777223842
 20
-60.96384526253697
 30
0.0
 10
-216.0291166126594
 20
-58.32534970764079
 30
0.0
 10
-211.4369730026963
 20
-57.7804491522214
 30
0.0
 10
-209.2356043921355
 20
-57.51925248562014
 30
0.0
 10
-207.4501960592487
 20
-57.79657109666202
 30
0.0
 10
-206.6607146705571
 20
-58.5224113742583
 30
0.0
 10
-206.6607146705571
 20
-58.5224113742583
 30
0.0
 10
-199.7676838389469
 20
-64.8599583171182
 30
0.0
 10
-199.7676838389469
 20
-64.8599583171182
 30
0.0
 10
-199.7676838389469
 20
-64.8599583171182
 30
0.0
 10
-198.0918482838103
 20
-55.64744887497688
 30
0.0
 10
-198.0918482838103
 20
-55.64744887497688
 30
0.0
 10
-196.6293727286204
 20
-47.60799609920905
 30
0.0
 10
-193.9343621737386
 20
-39.91779332335383
 30
0.0
 10
-190.0817466191463
 20
-32.79055332513567
 30
0.0
 10
-186.3440307867472
 20
-25.8755091601977
 30
0.0
 10
-181.5946893990457
 20
-19.62668582842652
 30
0.0
 10
-175.9657319004531
 20
-14.21793221866787
 30
0.0
 10
-170.3772027351834
 20
-8.847843053343606
 30
0.0
 10
-164.0657613478724
 20
-4.443094998889351
 30
0.0
 10
-157.2068088495873
 20
-1.126041971940696
 30
0.0
 10
-150.2313691291089
 20
2.247416693882712
 30
0.0
 10
-142.8527044087314
 20
4.413779165563085
 30
0.0
 10
-135.2757432995145
 20
5.312798054227426
 30
0.0
 10
-134.2901527442052
 20
5.429743887531604
 30
0.0
 10
-133.2887224666777
 20
5.52622860972947
 30
0.0
 10
-132.299251355814
 20
5.599571109711252
 30
0.0
 10
-120.7856077475813
 20
6.452940553942308
 30
0.0
 10
-108.6552380283917
 20
4.326360832251893
 30
0.0
 10
-97.21941719791729
 20
-0.5505167776401475
 30
0.0
 10
-87.02399831157739
 20
-4.898284165442101
 30
0.0
 10
-77.55191498061197
 20
-11.39271138604056
 30
0.0
 10
-70.54811192680744
 20
-18.83748666195738
 30
0.0
 10
-62.70483887321272
 20
-27.17457804876204
 30
0.0
 10
-58.55857109647146
 20
-36.10112582430792
 30
0.0
 10
-59.45713137402453
 20
-42.71595610043217
 30
0.0
 10
-60.36465220713105
 20
-49.39774359876162
 30
0.0
 10
-66.7814330388602
 20
-55.17320970842886
 30
0.0
 10
-79.07411581356486
 20
-60.3724133182402
 30
0.0
 10
-91.11692608833191
 20
-65.46571303918923
 30
0.0
 10
-106.7531308066449
 20
-69.13975248271519
 30
0.0
 10
-121.8743858028647
 20
-72.69307137071577
 30
0.0
 10
-150.9895591289193
 20
-79.53459664678307
 30
0.0
 10
-176.1342185670777
 20
-85.44298942308374
 30
0.0
 10
-177.3461866223301
 20
-101.419977474645
 30
0.0
 10
-177.8345721777635
 20
-107.8570077508134
 30
0.0
 10
-174.1996910675611
 20
-114.8421135824005
 30
0.0
 10
-166.5424024583645
 20
-122.1813024694546
 30
0.0
 10
-153.7760096837781
 20
-134.4172585775069
 30
0.0
 10
-130.8550496895085
 20
-146.3834807967376
 30
0.0
 10
-105.2287780292483
 20
-154.1912644058968
 30
0.0
 10
-83.99974025677801
 20
-160.6590569042797
 30
0.0
 10
-50.86103054284022
 20
-167.4393399581401
 30
0.0
 10
-13.54539666328019
 20
-163.0101444036922
 30
0.0
 10
-2.255929221658286
 20
-161.6700474595824
 30
0.0
 10
8.758378608921525
 20
-159.3522974601619
 30
0.0
 10
19.191604995202
 20
-156.1214174609696
 30
0.0
 10
35.59707603628738
 20
-151.0410294066844
 30
0.0
 10
47.55673628672657
 20
-145.9174966301872
 30
0.0
 10
55.75388052204445
 20
-140.45811940933
 30
0.0
 10
64.25448419406487
 20
-134.796671077412
 30
0.0
 10
68.68720741431001
 20
-128.7736255233623
 30
0.0
 10
69.30534462076224
 20
-122.0446363583778
 30
0.0
 10
70.83163763737882
 20
-105.4290499736428
 30
0.0
 10
48.07115682915817
 20
-92.03481858810231
 30
0.0
 10
22.57340332769012
 20
-78.645631924783
 30
0.0
 10
21.62259666126111
 20
-78.1464160915744
 30
0.0
 10
19.6442541617557
 20
-77.10748553627869
 30
0.0
 10
20.55791332819394
 20
-72.16326970418155
 30
0.0
 10
22.72936638320643
 20
-60.41061915156394
 30
0.0
 10
38.53236346140196
 20
-40.0817997122017
 30
0.0
 10
59.88145097229691
 20
-21.57744110571663
 30
0.0
 10
70.77216109341792
 20
-12.13788388585451
 30
0.0
 10
82.25405262374652
 20
-3.909730276800321
 30
0.0
 10
93.085741236296
 20
2.217681055001013
 30
0.0
 10
104.7004201066475
 20
8.788117775580591
 30
0.0
 10
115.3696221933795
 20
12.79856610791159
 30
0.0
 10
123.9399318380289
 20
13.81548332987955
 30
0.0
 10
134.9235618355909
 20
15.11871499622038
 30
0.0
 10
148.577966487238
 20
13.29619444112025
 30
0.0
 10
164.523980247088
 20
8.398580553455836
 30
0.0
 10
179.1651395957831
 20
3.901757499024452
 30
0.0
 10
195.4361322362311
 20
-3.18343138809308
 30
0.0
 10
211.5777965466452
 20
-12.09107027475506
 30
0.0
 10
227.0094603196173
 20
-20.60673777262612
 30
0.0
 10
241.9007804950802
 20
-30.53101165903397
 30
0.0
 10
254.6418021146575
 20
-40.79067137869111
 30
0.0
 10
267.4390273437286
 20
-51.09552193167058
 30
0.0
 10
277.4766837543134
 20
-61.26561137357244
 30
0.0
 10
283.6701208185278
 20
-70.20147248244956
 30
0.0
 10
289.7570189965715
 20
-78.98348720247629
 30
0.0
 10
291.8591511651639
 20
-86.24030247843981
 30
0.0
 10
289.5893437230715
 20
-90.63531386623003
 30
0.0
 10
279.6642304856395
 20
-109.8526363614256
 30
0.0
 10
261.8204063759605
 20
-117.7241669150133
 30
0.0
 10
246.0771692776039
 20
-124.6693030243881
 30
0.0
 10
231.3714868749994
 20
-131.1565688560997
 30
0.0
 10
217.4815027234075
 20
-137.2840719101235
 30
0.0
 10
215.7350003294749
 20
-151.8485024620379
 30
0.0
 10
214.4173048075366
 20
-162.836471903735
 30
0.0
 10
220.5621996507673
 20
-175.7660596782809
 30
0.0
 10
233.037444610275
 20
-188.2555218973803
 30
0.0
 10
250.9036693817185
 20
-206.1418843929091
 30
0.0
 10
282.0886886366513
 20
-222.6287421665649
 30
0.0
 10
311.4787888110194
 20
-219.1414985563258
 30
0.0
 10
311.4825203867522
 20
-219.1410399452148
 30
0.0
 10
311.4825203867522
 20
-219.1410399452148
 30
0.0
 10
311.48604816444
 20
-219.1406166118814
 30
0.0
 10
313.7038914411915
 20
-218.8773032786139
 30
0.0
 10
315.9034255517433
 20
-218.4972557787093
 30
0.0
 10
318.023372997659
 20
-218.0110221677196
 30
0.0
 10
344.5314473213816
 20
-211.9317085581282
 30
0.0
 10
358.9313157436007
 20
-189.420958563756
 30
0.0
 10
370.5016507407082
 20
-171.3330894016115
 30
0.0
 10
379.1625568496536
 20
-157.7942191272179
 30
0.0
 10
386.6421160144504
 20
-146.1014349634747
 30
0.0
 10
396.1312737898559
 20
-144.9754741304228
 30
0.0
 10
396.9846079563095
 20
-144.8742621860036
 30
0.0
 10
397.8715971227546
 20
-144.8547535748974
 30
0.0
 10
398.7682524003081
 20
-144.9177244082149
 30
0.0
 10
405.5574960097219
 20
-145.3938685747625
 30
0.0
 10
413.3089057300063
 20
-150.682219128996
 30
0.0
 10
420.0347198949915
 20
-159.4266982934767
 30
0.0
 10
426.0375512823792
 20
-167.2314127359702
 30
0.0
 10
430.9073662811619
 20
-177.3271366223352
 30
0.0
 10
433.7467687804525
 20
-187.8542371752588
 30
0.0
 10
436.8154062796848
 20
-199.2313205057478
 30
0.0
 10
437.419185446201
 20
-210.5540760584726
 30
0.0
 10
435.4927718355717
 20
-220.5983649448503
 30
0.0
  0
SPLINE
  5
85
330
7A
100
AcDbEntity
  8
Livello 1
100
AcDbSpline
210
0.0
220
0.0
230
1.0
 70
     9
 71
     3
 72
    56
 73
    52
 74
     0
 42
0.0000000001
 43
0.0000000001
 40
0.0
 40
0.0
 40
0.0
 40
0.0
 40
1.0
 40
1.0
 40
1.0
 40
2.0
 40
2.0
 40
2.0
 40
3.0
 40
3.0
 40
3.0
 40
4.0
 40
4.0
 40
4.0
 40
5.0
 40
5.0
 40
5.0
 40
6.0
 40
6.0
 40
6.0
 40
7.0
 40
7.0
 40
7.0
 40
8.0
 40
8.0
 40
8.0
 40
9.0
 40
9.0
 40
9.0
 40
10.0
 40
10.0
 40
10.0
 40
11.0
 40
11.0
 40
11.0
 40
12.0
 40
12.0
 40
12.0
 40
13.0
 40
13.0
 40
13.0
 40
14.0
 40
14.0
 40
14.0
 40
15.0
 40
15.0
 40
15.0
 40
16.0
 40
16.0
 40
16.0
 40
17.0
 40
17.0
 40
17.0
 40
17.0
 10
399.1291087891068
 20
-139.7704849650575
 30
0.0
 10
369.4824404631851
 20
-137.691353854466
 30
0.0
 10
363.0088271314704
 20
-202.4002174493996
 30
0.0
 10
316.8699660826403
 20
-212.9815752245325
 30
0.0
 10
273.4457391349291
 20
-222.9402802220429
 30
0.0
 10
217.586413337797
 20
-179.7475096772855
 30
0.0
 10
220.8582154765486
 20
-152.4630060729951
 30
0.0
 10
223.8382351227442
 20
-127.611540245875
 30
0.0
 10
273.9249171782598
 20
-132.209928022503
 30
0.0
 10
294.1739377727754
 20
-93.00322886563803
 30
0.0
 10
310.6471073525098
 20
-61.10739054027884
 30
0.0
 10
185.3803430483312
 20
26.30169999342443
 30
0.0
 10
123.3319899090943
 20
18.93940416193174
 30
0.0
 10
75.95612278442009
 20
13.31806666333729
 30
0.0
 10
-5.897280276303439
 20
-69.52343359373033
 30
0.0
 10
20.17447916162305
 20
-83.213963034752
 30
0.0
 10
60.01148485786836
 20
-104.1328385850778
 30
0.0
 10
96.30759004298868
 20
-126.8385688571793
 30
0.0
 10
17.66527666225046
 20
-151.1924769066465
 30
0.0
 10
-72.59062470407444
 20
-179.1427427329924
 30
0.0
 10
-174.1489263453516
 20
-127.4845755236844
 30
0.0
 10
-172.2010638458386
 20
-101.8100791412142
 30
0.0
 10
-170.2005669018944
 20
-75.44022248114
 30
0.0
 10
-59.23350554074716
 20
-79.40812581348125
 30
0.0
 10
-54.34414665308069
 20
-43.41036387803625
 30
0.0
 10
-51.29106665384384
 20
-20.93196360587824
 30
0.0
 10
-90.03820219971251
 20
13.9060061076346
 30
0.0
 10
-132.6807099668297
 20
10.74536416398048
 30
0.0
 10
-167.1411369026591
 20
8.191111942396613
 30
0.0
 10
-196.6006918952944
 20
-18.61939943978972
 30
0.0
 10
-203.1683557825411
 20
-54.72394720854109
 30
0.0
 10
-216.7676216124747
 20
-42.22062082277832
 30
0.0
 10
-282.2683654849885
 20
-84.00326803455467
 30
0.0
 10
-229.3265810537796
 20
-155.118787738998
 30
0.0
 10
-213.5932918910461
 20
-176.2528930114922
 30
0.0
 10
-193.3819827294322
 20
-209.6465905031442
 30
0.0
 10
-156.3628585720203
 20
-235.292300218955
 30
0.0
 10
-123.5435891357807
 20
-258.0284752132705
 30
0.0
 10
-92.28786608803913
 20
-267.0417710443508
 30
0.0
 10
-32.63677749184096
 20
-279.8322938189306
 30
0.0
 10
59.35235487468417
 20
-299.5569107584439
 30
0.0
 10
105.3468853679326
 20
-309.4192015893121
 30
0.0
 10
165.9256016002186
 20
-313.3776151994335
 30
0.0
 10
244.2618807128047
 20
-318.0513915871539
 30
0.0
 10
296.1008805013928
 20
-320.5501871420844
 30
0.0
 10
356.2155265776129
 20
-295.0289727040202
 30
0.0
 10
386.6969729588814
 20
-282.0882724294781
 30
0.0
 10
432.6991951696029
 20
-262.5583888232494
 30
0.0
 10
440.5603540565267
 20
-221.5703735557187
 30
0.0
 10
447.5004807214585
 20
-185.3847927314317
 30
0.0
 10
422.9932907275848
 20
-141.4440980201946
 30
0.0
 10
399.1291087891068
 20
-139.7704849650575
 30
0.0
  0
HATCH
  5
86
330
7A
100
AcDbEntity
  8
Livello 1
 62
   250
440
 33554687
100
AcDbHatch
 10
0.0
 20
0.0
 30
0.0
210
0.0
220
0.0
230
1.0
  2
SOLID
 70
     1
 71
     1
 91
        2
 92
        1
 93
        1
 72
     4
 94
        3
 73
     0
 74
     0
 95
      173
 96
      169
 40
0.0
 40
0.0
 40
0.0
 40
0.0
 40
1.0
 40
1.0
 40
1.0
 40
2.0
 40
2.0
 40
2.0
 40
3.0
 40
3.0
 40
3.0
 40
4.0
 40
4.0
 40
4.0
 40
5.0
 40
5.0
 40
5.0
 40
6.0
 40
6.0
 40
6.0
 40
7.0
 40
7.0
 40
7.0
 40
8.0
 40
8.0
 40
8.0
 40
9.0
 40
9.0
 40
9.0
 40
10.0
 40
10.0
 40
10.0
 40
11.0
 40
11.0
 40
11.0
 40
12.0
 40
12.0
 40
12.0
 40
13.0
 40
13.0
 40
13.0
 40
14.0
 40
14.0
 40
14.0
 40
15.0
 40
15.0
 40
15.0
 40
16.0
 40
16.0
 40
16.0
 40
17.0
 40
17.0
 40
17.0
 40
18.0
 40
18.0
 40
18.0
 40
19.0
 40
19.0
 40
19.0
 40
20.0
 40
20.0
 40
20.0
 40
21.0
 40
21.0
 40
21.0
 40
22.0
 40
22.0
 40
22.0
 40
23.0
 40
23.0
 40
23.0
 40
24.0
 40
24.0
 40
24.0
 40
25.0
 40
25.0
 40
25.0
 40
26.0
 40
26.0
 40
26.0
 40
27.0
 40
27.0
 40
27.0
 40
28.0
 40
28.0
 40
28.0
 40
29.0
 40
29.0
 40
29.0
 40
30.0
 40
30.0
 40
30.0
 40
31.0
 40
31.0
 40
31.0
 40
32.0
 40
32.0
 40
32.0
 40
33.0
 40
33.0
 40
33.0
 40
34.0
 40
34.0
 40
34.0
 40
35.0
 40
35.0
 40
35.0
 40
36.0
 40
36.0
 40
36.0
 40
37.0
 40
37.0
 40
37.0
 40
38.0
 40
38.0
 40
38.0
 40
39.0
 40
39.0
 40
39.0
 40
40.0
 40
40.0
 40
40.0
 40
41.0
 40
41.0
 40
41.0
 40
42.0
 40
42.0
 40
42.0
 40
43.0
 40
43.0
 40
43.0
 40
44.0
 40
44.0
 40
44.0
 40
45.0
 40
45.0
 40
45.0
 40
46.0
 40
46.0
 40
46.0
 40
47.0
 40
47.0
 40
47.0
 40
48.0
 40
48.0
 40
48.0
 40
49.0
 40
49.0
 40
49.0
 40
50.0
 40
50.0
 40
50.0
 40
51.0
 40
51.0
 40
51.0
 40
52.0
 40
52.0
 40
52.0
 40
53.0
 40
53.0
 40
53.0
 40
54.0
 40
54.0
 40
54.0
 40
55.0
 40
55.0
 40
55.0
 40
56.0
 40
56.0
 40
56.0
 40
56.0
 10
435.4927718355717
 20
-220.5983649448503
 10
432.2840110030399
 20
-237.329274385112
 10
421.9414132278483
 20
-251.7277582704012
 10
403.8738640656981
 20
-264.6168118782902
 10
388.0403507363236
 20
-275.9124740976888
 10
369.2764535187923
 20
-283.8784785401417
 10
354.1991546336724
 20
-290.2793490940966
 10
331.2880993259142
 20
-300.0059615916649
 10
309.0105360053734
 20
-305.9138604790771
 10
284.0976874742864
 20
-308.8698913116716
 10
284.0931719188461
 20
-308.8704204783383
 10
284.0917608077709
 20
-308.8705968672272
 10
284.0872805301074
 20
-308.8711260338932
 10
248.2665081106381
 20
-313.1201579772753
 10
208.4328885713229
 20
-310.7447288112031
 10
166.258235758399
 20
-308.2284707562765
 10
106.0598845164091
 20
-304.2949279794821
 10
60.06997541193169
 20
-294.4335190930583
 10
-31.55456110322244
 20
-274.7871482646364
 10
-91.54406942155839
 20
-261.9239179900744
 10
-121.7353560806774
 20
-253.0039318811933
 10
-153.424396072755
 20
-231.0508529977928
 10
-166.871967458282
 20
-221.7346621667883
 10
-179.2098410663086
 20
-210.5842032806873
 10
-191.1431138411032
 20
-196.9623596729814
 10
-201.5035268940686
 20
-185.1356257870496
 10
-209.829505780876
 20
-173.4456638455272
 10
-217.1754680012617
 20
-163.1319232925506
 10
-219.9843552227816
 20
-159.1882557935362
 10
-222.6373852221185
 20
-155.463169405579
 10
-225.1877216103698
 20
-152.0374855175464
 10
-235.3381260522766
 20
-138.402589132066
 10
-241.5646891062754
 20
-125.0906255242828
 10
-243.6945496612985
 20
-112.4711999718821
 10
-245.4563218830802
 20
-102.0322938633809
 10
-244.40924216112
 20
-92.23018692138701
 10
-240.5822735509656
 20
-83.33694136805467
 10
-236.6872188297171
 20
-74.28603942587291
 10
-230.8559432756194
 20
-68.38022192734944
 10
-226.6499149433376
 20
-65.01951970596748
 10
-221.5740777223842
 20
-60.96384526253697
 10
-216.0291166126594
 20
-58.32534970764079
 10
-211.4369730026963
 20
-57.7804491522214
 10
-209.2356043921355
 20
-57.51925248562014
 10
-207.4501960592487
 20
-57.79657109666202
 10
-206.6607146705571
 20
-58.5224113742583
 10
-206.6607146705571
 20
-58.5224113742583
 10
-199.7676838389469
 20
-64.8599583171182
 10
-199.7676838389469
 20
-64.8599583171182
 10
-199.7676838389469
 20
-64.8599583171182
 10
-198.0918482838103
 20
-55.64744887497688
 10
-198.0918482838103
 20
-55.64744887497688
 10
-196.6293727286204
 20
-47.60799609920905
 10
-193.9343621737386
 20
-39.91779332335383
 10
-190.0817466191463
 20
-32.79055332513567
 10
-186.3440307867472
 20
-25.8755091601977
 10
-181.5946893990457
 20
-19.62668582842652
 10
-175.9657319004531
 20
-14.21793221866787
 10
-170.3772027351834
 20
-8.847843053343606
 10
-164.0657613478724
 20
-4.443094998889351
 10
-157.2068088495873
 20
-1.126041971940696
 10
-150.2313691291089
 20
2.247416693882712
 10
-142.8527044087314
 20
4.413779165563085
 10
-135.2757432995145
 20
5.312798054227426
 10
-134.2901527442052
 20
5.429743887531604
 10
-133.2887224666777
 20
5.52622860972947
 10
-132.299251355814
 20
5.599571109711252
 10
-120.7856077475813
 20
6.452940553942308
 10
-108.6552380283917
 20
4.326360832251893
 10
-97.21941719791729
 20
-0.5505167776401475
 10
-87.02399831157739
 20
-4.898284165442101
 10
-77.55191498061197
 20
-11.39271138604056
 10
-70.54811192680744
 20
-18.83748666195738
 10
-62.70483887321272
 20
-27.17457804876204
 10
-58.55857109647146
 20
-36.10112582430792
 10
-59.45713137402453
 20
-42.71595610043217
 10
-60.36465220713105
 20
-49.39774359876162
 10
-66.7814330388602
 20
-55.17320970842886
 10
-79.07411581356486
 20
-60.3724133182402
 10
-91.11692608833191
 20
-65.46571303918923
 10
-106.7531308066449
 20
-69.13975248271519
 10
-121.8743858028647
 20
-72.69307137071577
 10
-150.9895591289193
 20
-79.53459664678307
 10
-176.1342185670777
 20
-85.44298942308374
 10
-177.3461866223301
 20
-101.419977474645
 10
-177.8345721777635
 20
-107.8570077508134
 10
-174.1996910675611
 20
-114.8421135824005
 10
-166.5424024583645
 20
-122.1813024694546
 10
-153.7760096837781
 20
-134.4172585775069
 10
-130.8550496895085
 20
-146.3834807967376
 10
-105.2287780292483
 20
-154.1912644058968
 10
-83.99974025677801
 20
-160.6590569042797
 10
-50.86103054284022
 20
-167.4393399581401
 10
-13.54539666328019
 20
-163.0101444036922
 10
-2.255929221658286
 20
-161.6700474595824
 10
8.758378608921525
 20
-159.3522974601619
 10
19.191604995202
 20
-156.1214174609696
 10
35.59707603628738
 20
-151.0410294066844
 10
47.55673628672657
 20
-145.9174966301872
 10
55.75388052204445
 20
-140.45811940933
 10
64.25448419406487
 20
-134.796671077412
 10
68.68720741431001
 20
-128.7736255233623
 10
69.30534462076224
 20
-122.0446363583778
 10
70.83163763737882
 20
-105.4290499736428
 10
48.07115682915817
 20
-92.03481858810231
 10
22.57340332769012
 20
-78.645631924783
 10
21.62259666126111
 20
-78.1464160915744
 10
19.6442541617557
 20
-77.10748553627869
 10
20.55791332819394
 20
-72.16326970418155
 10
22.72936638320643
 20
-60.41061915156394
 10
38.53236346140196
 20
-40.0817997122017
 10
59.88145097229691
 20
-21.57744110571663
 10
70.77216109341792
 20
-12.13788388585451
 10
82.25405262374652
 20
-3.909730276800321
 10
93.085741236296
 20
2.217681055001013
 10
104.7004201066475
 20
8.788117775580591
 10
115.3696221933795
 20
12.79856610791159
 10
123.9399318380289
 20
13.81548332987955
 10
134.9235618355909
 20
15.11871499622038
 10
148.577966487238
 20
13.29619444112025
 10
164.523980247088
 20
8.398580553455836
 10
179.1651395957831
 20
3.901757499024452
 10
195.4361322362311
 20
-3.18343138809308
 10
211.5777965466452
 20
-12.09107027475506
 10
227.0094603196173
 20
-20.60673777262612
 10
241.9007804950802
 20
-30.53101165903397
 10
254.6418021146575
 20
-40.79067137869111
 10
267.4390273437286
 20
-51.09552193167058
 10
277.4766837543134
 20
-61.26561137357244
 10
283.6701208185278
 20
-70.20147248244956
 10
289.7570189965715
 20
-78.98348720247629
 10
291.8591511651639
 20
-86.24030247843981
 10
289.5893437230715
 20
-90.63531386623003
 10
279.6642304856395
 20
-109.8526363614256
 10
261.8204063759605
 20
-117.7241669150133
 10
246.0771692776039
 20
-124.6693030243881
 10
231.3714868749994
 20
-131.1565688560997
 10
217.4815027234075
 20
-137.2840719101235
 10
215.7350003294749
 20
-151.8485024620379
 10
214.4173048075366
 20
-162.836471903735
 10
220.5621996507673
 20
-175.7660596782809
 10
233.037444610275
 20
-188.2555218973803
 10
250.9036693817185
 20
-206.1418843929091
 10
282.0886886366513
 20
-222.6287421665649
 10
311.4787888110194
 20
-219.1414985563258
 10
311.4825203867522
 20
-219.1410399452148
 10
311.4825203867522
 20
-219.1410399452148
 10
311.48604816444
 20
-219.1406166118814
 10
313.7038914411915
 20
-218.8773032786139
 10
315.9034255517433
 20
-218.4972557787093
 10
318.023372997659
 20
-218.0110221677196
 10
344.5314473213816
 20
-211.9317085581282
 10
358.9313157436007
 20
-189.420958563756
 10
370.5016507407082
 20
-171.3330894016115
 10
379.1625568496536
 20
-157.7942191272179
 10
386.6421160144504
 20
-146.1014349634747
 10
396.1312737898559
 20
-144.9754741304228
 10
396.9846079563095
 20
-144.8742621860036
 10
397.8715971227546
 20
-144.8547535748974
 10
398.7682524003081
 20
-144.9177244082149
 10
405.5574960097219
 20
-145.3938685747625
 10
413.3089057300063
 20
-150.682219128996
 10
420.0347198949915
 20
-159.4266982934767
 10
426.0375512823792
 20
-167.2314127359702
 10
430.9073662811619
 20
-177.3271366223352
 10
433.7467687804525
 20
-187.8542371752588
 10
436.8154062796848
 20
-199.2313205057478
 10
437.419185446201
 20
-210.5540760584726
 10
435.4927718355717
 20
-220.5983649448503
 97
        1
330
84
 92
        1
 93
        1
 72
     4
 94
        3
 73
     0
 74
     0
 95
       56
 96
       52
 40
0.0
 40
0.0
 40
0.0
 40
0.0
 40
1.0
 40
1.0
 40
1.0
 40
2.0
 40
2.0
 40
2.0
 40
3.0
 40
3.0
 40
3.0
 40
4.0
 40
4.0
 40
4.0
 40
5.0
 40
5.0
 40
5.0
 40
6.0
 40
6.0
 40
6.0
 40
7.0
 40
7.0
 40
7.0
 40
8.0
 40
8.0
 40
8.0
 40
9.0
 40
9.0
 40
9.0
 40
10.0
 40
10.0
 40
10.0
 40
11.0
 40
11.0
 40
11.0
 40
12.0
 40
12.0
 40
12.0
 40
13.0
 40
13.0
 40
13.0
 40
14.0
 40
14.0
 40
14.0
 40
15.0
 40
15.0
 40
15.0
 40
16.0
 40
16.0
 40
16.0
 40
17.0
 40
17.0
 40
17.0
 40
17.0
 10
399.1291087891068
 20
-139.7704849650575
 10
369.4824404631851
 20
-137.691353854466
 10
363.0088271314704
 20
-202.4002174493996
 10
316.8699660826403
 20
-212.9815752245325
 10
273.4457391349291
 20
-222.9402802220429
 10
217.586413337797
 20
-179.7475096772855
 10
220.8582154765486
 20
-152.4630060729951
 10
223.8382351227442
 20
-127.611540245875
 10
273.9249171782598
 20
-132.209928022503
 10
294.1739377727754
 20
-93.00322886563803
 10
310.6471073525098
 20
-61.10739054027884
 10
185.3803430483312
 20
26.30169999342443
 10
123.3319899090943
 20
18.93940416193174
 10
75.95612278442009
 20
13.31806666333729
 10
-5.897280276303439
 20
-69.52343359373033
 10
20.17447916162305
 20
-83.213963034752
 10
60.01148485786836
 20
-104.1328385850778
 10
96.30759004298868
 20
-126.8385688571793
 10
17.66527666225046
 20
-151.1924769066465
 10
-72.59062470407444
 20
-179.1427427329924
 10
-174.1489263453516
 20
-127.4845755236844
 10
-172.2010638458386
 20
-101.8100791412142
 10
-170.2005669018944
 20
-75.44022248114
 10
-59.23350554074716
 20
-79.40812581348125
 10
-54.34414665308069
 20
-43.41036387803625
 10
-51.29106665384384
 20
-20.93196360587824
 10
-90.03820219971251
 20
13.9060061076346
 10
-132.6807099668297
 20
10.74536416398048
 10
-167.1411369026591
 20
8.191111942396613
 10
-196.6006918952944
 20
-18.61939943978972
 10
-203.1683557825411
 20
-54.72394720854109
 10
-216.7676216124747
 20
-42.22062082277832
 10
-282.2683654849885
 20
-84.00326803455467
 10
-229.3265810537796
 20
-155.118787738998
 10
-213.5932918910461
 20
-176.2528930114922
 10
-193.3819827294322
 20
-209.6465905031442
 10
-156.3628585720203
 20
-235.292300218955
 10
-123.5435891357807
 20
-258.0284752132705
 10
-92.28786608803913
 20
-267.0417710443508
 10
-32.63677749184096
 20
-279.8322938189306
 10
59.35235487468417
 20
-299.5569107584439
 10
105.3468853679326
 20
-309.4192015893121
 10
165.9256016002186
 20
-313.3776151994335
 10
244.2618807128047
 20
-318.0513915871539
 10
296.1008805013928
 20
-320.5501871420844
 10
356.2155265776129
 20
-295.0289727040202
 10
386.6969729588814
 20
-282.0882724294781
 10
432.6991951696029
 20
-262.5583888232494
 10
440.5603540565267
 20
-221.5703735557187
 10
447.5004807214585
 20
-185.3847927314317
 10
422.9932907275848
 20
-141.4440980201946
 10
399.1291087891068
 20
-139.7704849650575
 97
        1
330
85
 75
     2
 76
     1
 98
        1
 10
0.0
 20
0.0
450
        0
451
        0
460
0.0
461
0.0
452
        0
462
0.0
453
        0
470

  0
SPLINE
  5
87
330
7A
100
AcDbEntity
  8
Livello 1
100
AcDbSpline
210
0.0
220
0.0
230
1.0
 70
     9
 71
     3
 72
    59
 73
    55
 74
     0
 42
0.0000000001
 43
0.0000000001
 40
0.0
 40
0.0
 40
0.0
 40
0.0
 40
1.0
 40
1.0
 40
1.0
 40
2.0
 40
2.0
 40
2.0
 40
3.0
 40
3.0
 40
3.0
 40
4.0
 40
4.0
 40
4.0
 40
5.0
 40
5.0
 40
5.0
 40
6.0
 40
6.0
 40
6.0
 40
7.0
 40
7.0
 40
7.0
 40
8.0
 40
8.0
 40
8.0
 40
9.0
 40
9.0
 40
9.0
 40
10.0
 40
10.0
 40
10.0
 40
11.0
 40
11.0
 40
11.0
 40
12.0
 40
12.0
 40
12.0
 40
13.0
 40
13.0
 40
13.0
 40
14.0
 40
14.0
 40
14.0
 40
15.0
 40
15.0
 40
15.0
 40
16.0
 40
16.0
 40
16.0
 40
17.0
 40
17.0
 40
17.0
 40
18.0
 40
18.0
 40
18.0
 40
18.0
 10
-145.391646074763
 20
-160.7003319042695
 30
0.0
 10
-145.4866491302948
 20
-161.3260891263349
 30
0.0
 10
-145.8096524635475
 20
-161.7407441262313
 30
0.0
 10
-146.2387713523292
 20
-162.1609730150155
 30
0.0
 10
-146.2608905189902
 20
-162.183938848343
 30
0.0
 10
-146.2890069078721
 20
-162.2129724594469
 30
0.0
 10
-146.3256252411962
 20
-162.2505432927708
 30
0.0
 10
-146.4164655189515
 20
-162.343641348303
 30
0.0
 10
-146.5062827411514
 20
-162.4377977371686
 30
0.0
 10
-146.5951474633511
 20
-162.5328007927004
 30
0.0
 10
-146.790163018858
 20
-162.7412571815368
 30
0.0
 10
-146.9803102410326
 20
-162.9542291259279
 30
0.0
 10
-147.1662241298751
 20
-163.1708346814292
 30
0.0
 10
-147.5331482964501
 20
-163.5983307924338
 30
0.0
 10
-147.8828921852515
 20
-164.0404319034341
 30
0.0
 10
-148.2176077407234
 20
-164.4935396810987
 30
0.0
 10
-148.5779702406333
 20
-164.9813607920877
 30
0.0
 10
-148.9209055183253
 20
-165.4819171808517
 30
0.0
 10
-149.2491652404656
 20
-165.99189273628
 30
0.0
 10
-149.3524585737731
 20
-166.1522655140174
 30
0.0
 10
-149.4541644070808
 20
-166.3136613473105
 30
0.0
 10
-149.5545649626112
 20
-166.4758685694924
 30
0.0
 10
-149.5567521848332
 20
-166.4793257917137
 30
0.0
 10
-149.5591510737211
 20
-166.4837002361569
 30
0.0
 10
-149.5614088514984
 20
-166.4875807917116
 30
0.0
 10
-149.7533552403394
 20
-166.8988844027199
 30
0.0
 10
-149.6943707959097
 20
-166.7481071805352
 30
0.0
 10
-149.6187352403731
 20
-166.5952838472403
 30
0.0
 10
-149.7322238514557
 20
-166.8055394027431
 30
0.0
 10
-149.8701599625325
 20
-167.0085630138031
 30
0.0
 10
-149.9868588513921
 20
-167.2151144026407
 30
0.0
 10
-154.7067432946567
 20
-175.5730196783288
 30
0.0
 10
-156.6294527386203
 20
-185.1155527314986
 30
0.0
 10
-160.2343830154969
 20
-193.9398655070705
 30
0.0
 10
-160.7292949598177
 20
-195.1514807845452
 30
0.0
 10
-162.15599884835
 20
-195.6002493955441
 30
0.0
 10
-163.3183310702815
 20
-195.1522216178788
 30
0.0
 10
-164.5172110699818
 20
-194.6899768957718
 30
0.0
 10
-164.9940960698627
 20
-193.2026657850324
 30
0.0
 10
-164.5305813477563
 20
-192.0681677297608
 30
0.0
 10
-163.5667924591084
 20
-189.7089310636842
 30
0.0
 10
-162.7440794037583
 20
-187.2944141198431
 30
0.0
 10
-161.9369591261825
 20
-184.8780274537807
 30
0.0
 10
-160.3490005154684
 20
-180.1242763438578
 30
0.0
 10
-158.8439094047335
 20
-175.3315432895005
 30
0.0
 10
-156.886486627445
 20
-170.7125180128773
 30
0.0
 10
-154.9916819056964
 20
-166.241236069551
 30
0.0
 10
-152.6528357951701
 20
-161.8716246817545
 30
0.0
 10
-149.1208599627199
 20
-158.4785727381584
 30
0.0
 10
-148.1756271851785
 20
-157.5705227383852
 30
0.0
 10
-146.5691830189133
 20
-158.0520291271539
 30
0.0
 10
-145.8388624635403
 20
-158.9354905158215
 30
0.0
 10
-145.4616019080789
 20
-159.3919144045967
 30
0.0
 10
-145.3044041303404
 20
-160.1252688488576
 30
0.0
 10
-145.391646074763
 20
-160.7003319042695
 30
0.0
  0
SPLINE
  5
88
330
7A
100
AcDbEntity
  8
Livello 1
100
AcDbSpline
210
0.0
220
0.0
230
1.0
 70
     9
 71
     3
 72
    74
 73
    70
 74
     0
 42
0.0000000001
 43
0.0000000001
 40
0.0
 40
0.0
 40
0.0
 40
0.0
 40
1.0
 40
1.0
 40
1.0
 40
2.0
 40
2.0
 40
2.0
 40
3.0
 40
3.0
 40
3.0
 40
4.0
 40
4.0
 40
4.0
 40
5.0
 40
5.0
 40
5.0
 40
6.0
 40
6.0
 40
6.0
 40
7.0
 40
7.0
 40
7.0
 40
8.0
 40
8.0
 40
8.0
 40
9.0
 40
9.0
 40
9.0
 40
10.0
 40
10.0
 40
10.0
 40
11.0
 40
11.0
 40
11.0
 40
12.0
 40
12.0
 40
12.0
 40
13.0
 40
13.0
 40
13.0
 40
14.0
 40
14.0
 40
14.0
 40
15.0
 40
15.0
 40
15.0
 40
16.0
 40
16.0
 40
16.0
 40
17.0
 40
17.0
 40
17.0
 40
18.0
 40
18.0
 40
18.0
 40
19.0
 40
19.0
 40
19.0
 40
20.0
 40
20.0
 40
20.0
 40
21.0
 40
21.0
 40
21.0
 40
22.0
 40
22.0
 40
22.0
 40
23.0
 40
23.0
 40
23.0
 40
23.0
 10
-148.707968851712
 20
-152.8816827395575
 30
0.0
 10
-150.2268182957765
 20
-153.0619169061789
 30
0.0
 10
-151.6057207954318
 20
-153.7106399615725
 30
0.0
 10
-152.6955571840484
 20
-154.7575432946441
 30
0.0
 10
-157.2306919051367
 20
-159.1141371824436
 30
0.0
 10
-159.8565932933692
 20
-164.4965382922091
 30
0.0
 10
-161.6374860707019
 20
-168.6988977356032
 30
0.0
 10
-163.3674377369361
 20
-172.7815949568048
 30
0.0
 10
-164.7499385699236
 20
-176.9603182890934
 30
0.0
 10
-166.0869663473672
 20
-181.0014935658607
 30
0.0
 10
-166.3343341250832
 20
-181.7492413434516
 30
0.0
 10
-166.5816666250212
 20
-182.496777454376
 30
0.0
 10
-166.83104523607
 20
-183.2433257875222
 30
0.0
 10
-167.6154466247628
 20
-185.5915910647133
 30
0.0
 10
-168.39519134679
 20
-187.8842938419178
 30
0.0
 10
-169.3072277354511
 20
-190.1166716191373
 30
0.0
 10
-170.0740607908147
 20
-191.9938374520017
 30
0.0
 10
-170.0481669019326
 20
-194.1490627292407
 30
0.0
 10
-169.2361430132466
 20
-196.0298974509928
 30
0.0
 10
-168.4442274578889
 20
-197.8642713394225
 30
0.0
 10
-167.001613291583
 20
-199.2624707835176
 30
0.0
 10
-165.1739421809288
 20
-199.9668268944528
 30
0.0
 10
-164.0076941256647
 20
-200.4164774498962
 30
0.0
 10
-162.7325082926501
 20
-200.576144672078
 30
0.0
 10
-161.486885237406
 20
-200.4283307832261
 30
0.0
 10
-158.779562738083
 20
-200.1069502277509
 30
0.0
 10
-156.4693269053271
 20
-198.3681085615189
 30
0.0
 10
-155.4575249611357
 20
-195.8908677288048
 30
0.0
 10
-154.0329024614918
 20
-192.403483007455
 30
0.0
 10
-152.8677127395607
 20
-188.8391574527904
 30
0.0
 10
-151.7409052398425
 20
-185.3919541203189
 30
0.0
 10
-149.9137280180771
 20
-179.8024724550491
 30
0.0
 10
-148.1879744073975
 20
-174.5229060674805
 30
0.0
 10
-145.4938457969598
 20
-169.7523274575621
 30
0.0
 10
-145.4751485747423
 20
-169.7205421797918
 30
0.0
 10
-145.4512655191928
 20
-169.6826185686908
 30
0.0
 10
-145.4276294080877
 20
-169.6442363464781
 30
0.0
 10
-145.3883299636528
 20
-169.5803130131605
 30
0.0
 10
-145.3426805192198
 20
-169.5063355131791
 30
0.0
 10
-145.2928330192322
 20
-169.4230799576442
 30
0.0
 10
-145.2135991303633
 20
-169.2960799576757
 30
0.0
 10
-145.1365877414935
 20
-169.1628710688202
 30
0.0
 10
-145.0619752415123
 20
-169.0229594021885
 30
0.0
 10
-145.0116338526359
 20
-168.9428788466533
 30
0.0
 10
-144.9608338526485
 20
-168.8631157911177
 30
0.0
 10
-144.9096810748837
 20
-168.7836349578043
 30
0.0
 10
-144.6310924638422
 20
-168.3508824579121
 30
0.0
 10
-144.3475649639132
 20
-167.9386263469044
 30
0.0
 10
-144.0674594084274
 20
-167.559707735888
 30
0.0
 10
-143.7983252418281
 20
-167.1953588470899
 30
0.0
 10
-143.5235819085635
 20
-166.8494955138429
 30
0.0
 10
-143.2506024641873
 20
-166.5311841250337
 30
0.0
 10
-143.1073746864454
 20
-166.3645671806311
 30
0.0
 10
-142.9652405198142
 20
-166.2057466251155
 30
0.0
 10
-142.8281157976264
 20
-166.0591321807076
 30
0.0
 10
-142.7623932976428
 20
-165.9886824585026
 30
0.0
 10
-142.6991049643253
 20
-165.9222896807419
 30
0.0
 10
-142.6348994087858
 20
-165.8564613474247
 30
0.0
 10
-142.6348994087858
 20
-165.8564613474247
 30
0.0
 10
-142.5810655199103
 20
-165.8010399585496
 30
0.0
 10
-142.5810655199103
 20
-165.8010399585496
 30
0.0
 10
-142.0519694089316
 20
-165.2809044031243
 30
0.0
 10
-140.6502774648373
 20
-163.8462982923718
 30
0.0
 10
-140.2901971871496
 20
-161.4749613485201
 30
0.0
 10
-139.9751313538949
 20
-159.3974177379282
 30
0.0
 10
-140.5627532981926
 20
-157.2194735718063
 30
0.0
 10
-141.8618927423123
 20
-155.6479544055324
 30
0.0
 10
-143.4983935752365
 20
-153.6682360726938
 30
0.0
 10
-146.185678296787
 20
-152.5823860729654
 30
0.0
 10
-148.707968851712
 20
-152.8816827395575
 30
0.0
  0
HATCH
  5
89
330
7A
100
AcDbEntity
  8
Livello 1
 62
   250
440
 33554687
100
AcDbHatch
 10
0.0
 20
0.0
 30
0.0
210
0.0
220
0.0
230
1.0
  2
SOLID
 70
     1
 71
     1
 91
        2
 92
        1
 93
        1
 72
     4
 94
        3
 73
     0
 74
     0
 95
       59
 96
       55
 40
0.0
 40
0.0
 40
0.0
 40
0.0
 40
1.0
 40
1.0
 40
1.0
 40
2.0
 40
2.0
 40
2.0
 40
3.0
 40
3.0
 40
3.0
 40
4.0
 40
4.0
 40
4.0
 40
5.0
 40
5.0
 40
5.0
 40
6.0
 40
6.0
 40
6.0
 40
7.0
 40
7.0
 40
7.0
 40
8.0
 40
8.0
 40
8.0
 40
9.0
 40
9.0
 40
9.0
 40
10.0
 40
10.0
 40
10.0
 40
11.0
 40
11.0
 40
11.0
 40
12.0
 40
12.0
 40
12.0
 40
13.0
 40
13.0
 40
13.0
 40
14.0
 40
14.0
 40
14.0
 40
15.0
 40
15.0
 40
15.0
 40
16.0
 40
16.0
 40
16.0
 40
17.0
 40
17.0
 40
17.0
 40
18.0
 40
18.0
 40
18.0
 40
18.0
 10
-145.391646074763
 20
-160.7003319042695
 10
-145.4866491302948
 20
-161.3260891263349
 10
-145.8096524635475
 20
-161.7407441262313
 10
-146.2387713523292
 20
-162.1609730150155
 10
-146.2608905189902
 20
-162.183938848343
 10
-146.2890069078721
 20
-162.2129724594469
 10
-146.3256252411962
 20
-162.2505432927708
 10
-146.4164655189515
 20
-162.343641348303
 10
-146.5062827411514
 20
-162.4377977371686
 10
-146.5951474633511
 20
-162.5328007927004
 10
-146.790163018858
 20
-162.7412571815368
 10
-146.9803102410326
 20
-162.9542291259279
 10
-147.1662241298751
 20
-163.1708346814292
 10
-147.5331482964501
 20
-163.5983307924338
 10
-147.8828921852515
 20
-164.0404319034341
 10
-148.2176077407234
 20
-164.4935396810987
 10
-148.5779702406333
 20
-164.9813607920877
 10
-148.9209055183253
 20
-165.4819171808517
 10
-149.2491652404656
 20
-165.99189273628
 10
-149.3524585737731
 20
-166.1522655140174
 10
-149.4541644070808
 20
-166.3136613473105
 10
-149.5545649626112
 20
-166.4758685694924
 10
-149.5567521848332
 20
-166.4793257917137
 10
-149.5591510737211
 20
-166.4837002361569
 10
-149.5614088514984
 20
-166.4875807917116
 10
-149.7533552403394
 20
-166.8988844027199
 10
-149.6943707959097
 20
-166.7481071805352
 10
-149.6187352403731
 20
-166.5952838472403
 10
-149.7322238514557
 20
-166.8055394027431
 10
-149.8701599625325
 20
-167.0085630138031
 10
-149.9868588513921
 20
-167.2151144026407
 10
-154.7067432946567
 20
-175.5730196783288
 10
-156.6294527386203
 20
-185.1155527314986
 10
-160.2343830154969
 20
-193.9398655070705
 10
-160.7292949598177
 20
-195.1514807845452
 10
-162.15599884835
 20
-195.6002493955441
 10
-163.3183310702815
 20
-195.1522216178788
 10
-164.5172110699818
 20
-194.6899768957718
 10
-164.9940960698627
 20
-193.2026657850324
 10
-164.5305813477563
 20
-192.0681677297608
 10
-163.5667924591084
 20
-189.7089310636842
 10
-162.7440794037583
 20
-187.2944141198431
 10
-161.9369591261825
 20
-184.8780274537807
 10
-160.3490005154684
 20
-180.1242763438578
 10
-158.8439094047335
 20
-175.3315432895005
 10
-156.886486627445
 20
-170.7125180128773
 10
-154.9916819056964
 20
-166.241236069551
 10
-152.6528357951701
 20
-161.8716246817545
 10
-149.1208599627199
 20
-158.4785727381584
 10
-148.1756271851785
 20
-157.5705227383852
 10
-146.5691830189133
 20
-158.0520291271539
 10
-145.8388624635403
 20
-158.9354905158215
 10
-145.4616019080789
 20
-159.3919144045967
 10
-145.3044041303404
 20
-160.1252688488576
 10
-145.391646074763
 20
-160.7003319042695
 97
        1
330
87
 92
        1
 93
        1
 72
     4
 94
        3
 73
     0
 74
     0
 95
       74
 96
       70
 40
0.0
 40
0.0
 40
0.0
 40
0.0
 40
1.0
 40
1.0
 40
1.0
 40
2.0
 40
2.0
 40
2.0
 40
3.0
 40
3.0
 40
3.0
 40
4.0
 40
4.0
 40
4.0
 40
5.0
 40
5.0
 40
5.0
 40
6.0
 40
6.0
 40
6.0
 40
7.0
 40
7.0
 40
7.0
 40
8.0
 40
8.0
 40
8.0
 40
9.0
 40
9.0
 40
9.0
 40
10.0
 40
10.0
 40
10.0
 40
11.0
 40
11.0
 40
11.0
 40
12.0
 40
12.0
 40
12.0
 40
13.0
 40
13.0
 40
13.0
 40
14.0
 40
14.0
 40
14.0
 40
15.0
 40
15.0
 40
15.0
 40
16.0
 40
16.0
 40
16.0
 40
17.0
 40
17.0
 40
17.0
 40
18.0
 40
18.0
 40
18.0
 40
19.0
 40
19.0
 40
19.0
 40
20.0
 40
20.0
 40
20.0
 40
21.0
 40
21.0
 40
21.0
 40
22.0
 40
22.0
 40
22.0
 40
23.0
 40
23.0
 40
23.0
 40
23.0
 10
-148.707968851712
 20
-152.8816827395575
 10
-150.2268182957765
 20
-153.0619169061789
 10
-151.6057207954318
 20
-153.7106399615725
 10
-152.6955571840484
 20
-154.7575432946441
 10
-157.2306919051367
 20
-159.1141371824436
 10
-159.8565932933692
 20
-164.4965382922091
 10
-161.6374860707019
 20
-168.6988977356032
 10
-163.3674377369361
 20
-172.7815949568048
 10
-164.7499385699236
 20
-176.9603182890934
 10
-166.0869663473672
 20
-181.0014935658607
 10
-166.3343341250832
 20
-181.7492413434516
 10
-166.5816666250212
 20
-182.496777454376
 10
-166.83104523607
 20
-183.2433257875222
 10
-167.6154466247628
 20
-185.5915910647133
 10
-168.39519134679
 20
-187.8842938419178
 10
-169.3072277354511
 20
-190.1166716191373
 10
-170.0740607908147
 20
-191.9938374520017
 10
-170.0481669019326
 20
-194.1490627292407
 10
-169.2361430132466
 20
-196.0298974509928
 10
-168.4442274578889
 20
-197.8642713394225
 10
-167.001613291583
 20
-199.2624707835176
 10
-165.1739421809288
 20
-199.9668268944528
 10
-164.0076941256647
 20
-200.4164774498962
 10
-162.7325082926501
 20
-200.576144672078
 10
-161.486885237406
 20
-200.4283307832261
 10
-158.779562738083
 20
-200.1069502277509
 10
-156.4693269053271
 20
-198.3681085615189
 10
-155.4575249611357
 20
-195.8908677288048
 10
-154.0329024614918
 20
-192.403483007455
 10
-152.8677127395607
 20
-188.8391574527904
 10
-151.7409052398425
 20
-185.3919541203189
 10
-149.9137280180771
 20
-179.8024724550491
 10
-148.1879744073975
 20
-174.5229060674805
 10
-145.4938457969598
 20
-169.7523274575621
 10
-145.4751485747423
 20
-169.7205421797918
 10
-145.4512655191928
 20
-169.6826185686908
 10
-145.4276294080877
 20
-169.6442363464781
 10
-145.3883299636528
 20
-169.5803130131605
 10
-145.3426805192198
 20
-169.5063355131791
 10
-145.2928330192322
 20
-169.4230799576442
 10
-145.2135991303633
 20
-169.2960799576757
 10
-145.1365877414935
 20
-169.1628710688202
 10
-145.0619752415123
 20
-169.0229594021885
 10
-145.0116338526359
 20
-168.9428788466533
 10
-144.9608338526485
 20
-168.8631157911177
 10
-144.9096810748837
 20
-168.7836349578043
 10
-144.6310924638422
 20
-168.3508824579121
 10
-144.3475649639132
 20
-167.9386263469044
 10
-144.0674594084274
 20
-167.559707735888
 10
-143.7983252418281
 20
-167.1953588470899
 10
-143.5235819085635
 20
-166.8494955138429
 10
-143.2506024641873
 20
-166.5311841250337
 10
-143.1073746864454
 20
-166.3645671806311
 10
-142.9652405198142
 20
-166.2057466251155
 10
-142.8281157976264
 20
-166.0591321807076
 10
-142.7623932976428
 20
-165.9886824585026
 10
-142.6991049643253
 20
-165.9222896807419
 10
-142.6348994087858
 20
-165.8564613474247
 10
-142.6348994087858
 20
-165.8564613474247
 10
-142.5810655199103
 20
-165.8010399585496
 10
-142.5810655199103
 20
-165.8010399585496
 10
-142.0519694089316
 20
-165.2809044031243
 10
-140.6502774648373
 20
-163.8462982923718
 10
-140.2901971871496
 20
-161.4749613485201
 10
-139.9751313538949
 20
-159.3974177379282
 10
-140.5627532981926
 20
-157.2194735718063
 10
-141.8618927423123
 20
-155.6479544055324
 10
-143.4983935752365
 20
-153.6682360726938
 10
-146.185678296787
 20
-152.5823860729654
 10
-148.707968851712
 20
-152.8816827395575
 97
        1
330
88
 75
     2
 76
     1
 98
        1
 10
0.0
 20
0.0
450
        0
451
        0
460
0.0
461
0.0
452
        0
462
0.0
453
        0
470

  0
SPLINE
  5
8A
330
7A
100
AcDbEntity
  8
Livello 1
100
AcDbSpline
210
0.0
220
0.0
230
1.0
 70
     9
 71
     3
 72
    17
 73
    13
 74
     0
 42
0.0000000001
 43
0.0000000001
 40
0.0
 40
0.0
 40
0.0
 40
0.0
 40
1.0
 40
1.0
 40
1.0
 40
2.0
 40
2.0
 40
2.0
 40
3.0
 40
3.0
 40
3.0
 40
4.0
 40
4.0
 40
4.0
 40
4.0
 10
-136.8847627435566
 20
-21.18966777248036
 30
0.0
 10
-125.4379352464184
 20
-19.83143805059782
 30
0.0
 10
-115.0574491379023
 20
-28.00981471521975
 30
0.0
 10
-113.6992546937973
 20
-39.45664221235794
 30
0.0
 10
-112.3410602496926
 20
-50.90339915394078
 30
0.0
 10
-120.5194369143145
 20
-61.28388526245682
 30
0.0
 10
-131.9662644114527
 20
-62.64211498433937
 30
0.0
 10
-143.4129507974802
 20
-64.00030942844439
 30
0.0
 10
-153.7935074615516
 20
-55.82189748604463
 30
0.0
 10
-155.1517019056566
 20
-44.37514054446179
 30
0.0
 10
-156.5098963497613
 20
-32.92834832510112
 30
0.0
 10
-148.3314844073616
 20
-22.54786221658539
 30
0.0
 10
-136.8847627435566
 20
-21.18966777248036
 30
0.0
  0
SPLINE
  5
8B
330
7A
100
AcDbEntity
  8
Livello 1
100
AcDbSpline
210
0.0
220
0.0
230
1.0
 70
     9
 71
     3
 72
    17
 73
    13
 74
     0
 42
0.0000000001
 43
0.0000000001
 40
0.0
 40
0.0
 40
0.0
 40
0.0
 40
1.0
 40
1.0
 40
1.0
 40
2.0
 40
2.0
 40
2.0
 40
3.0
 40
3.0
 40
3.0
 40
4.0
 40
4.0
 40
4.0
 40
4.0
 10
-131.358251911605
 20
-67.76617692750292
 30
0.0
 10
-117.1044421929461
 20
-66.07492498348126
 30
0.0
 10
-106.8840819177235
 20
-53.10265109783561
 30
0.0
 10
-108.575369139523
 20
-38.84862971250992
 30
0.0
 10
-110.2666563613221
 20
-24.59471416051808
 30
0.0
 10
-123.2389302469681
 20
-14.37431860751764
 30
0.0
 10
-137.4927399656268
 20
-16.06560582931681
 30
0.0
 10
-151.7466202398411
 20
-17.75685777333847
 30
0.0
 10
-161.9669099595083
 20
-30.72913165898445
 30
0.0
 10
-160.2756227377088
 20
-44.98308248875413
 30
0.0
 10
-158.5843355159093
 20
-59.23710387407949
 30
0.0
 10
-145.6121321858191
 20
-69.45746414930242
 30
0.0
 10
-131.358251911605
 20
-67.76617692750292
 30
0.0
  0
HATCH
  5
8C
330
7A
100
AcDbEntity
  8
Livello 1
 62
   250
440
 33554687
100
AcDbHatch
 10
0.0
 20
0.0
 30
0.0
210
0.0
220
0.0
230
1.0
  2
SOLID
 70
     1
 71
     1
 91
        2
 92
        1
 93
        1
 72
     4
 94
        3
 73
     0
 74
     0
 95
       17
 96
       13
 40
0.0
 40
0.0
 40
0.0
 40
0.0
 40
1.0
 40
1.0
 40
1.0
 40
2.0
 40
2.0
 40
2.0
 40
3.0
 40
3.0
 40
3.0
 40
4.0
 40
4.0
 40
4.0
 40
4.0
 10
-136.8847627435566
 20
-21.18966777248036
 10
-125.4379352464184
 20
-19.83143805059782
 10
-115.0574491379023
 20
-28.00981471521975
 10
-113.6992546937973
 20
-39.45664221235794
 10
-112.3410602496926
 20
-50.90339915394078
 10
-120.5194369143145
 20
-61.28388526245682
 10
-131.9662644114527
 20
-62.64211498433937
 10
-143.4129507974802
 20
-64.00030942844439
 10
-153.7935074615516
 20
-55.82189748604463
 10
-155.1517019056566
 20
-44.37514054446179
 10
-156.5098963497613
 20
-32.92834832510112
 10
-148.3314844073616
 20
-22.54786221658539
 10
-136.8847627435566
 20
-21.18966777248036
 97
        1
330
8A
 92
        1
 93
        1
 72
     4
 94
        3
 73
     0
 74
     0
 95
       17
 96
       13
 40
0.0
 40
0.0
 40
0.0
 40
0.0
 40
1.0
 40
1.0
 40
1.0
 40
2.0
 40
2.0
 40
2.0
 40
3.0
 40
3.0
 40
3.0
 40
4.0
 40
4.0
 40
4.0
 40
4.0
 10
-131.358251911605
 20
-67.76617692750292
 10
-117.1044421929461
 20
-66.07492498348126
 10
-106.8840819177235
 20
-53.10265109783561
 10
-108.575369139523
 20
-38.84862971250992
 10
-110.2666563613221
 20
-24.59471416051808
 10
-123.2389302469681
 20
-14.37431860751764
 10
-137.4927399656268
 20
-16.06560582931681
 10
-151.7466202398411
 20
-17.75685777333847
 10
-161.9669099595083
 20
-30.72913165898445
 10
-160.2756227377088
 20
-44.98308248875413
 10
-158.5843355159093
 20
-59.23710387407949
 10
-145.6121321858191
 20
-69.45746414930242
 10
-131.358251911605
 20
-67.76617692750292
 97
        1
330
8B
 75
     2
 76
     1
 98
        1
 10
0.0
 20
0.0
450
        0
451
        0
460
0.0
461
0.0
452
        0
462
0.0
453
        0
470

  0
SPLINE
  5
8D
330
7A
100
AcDbEntity
  8
Livello 1
100
AcDbSpline
210
0.0
220
0.0
230
1.0
 70
     9
 71
     3
 72
    29
 73
    25
 74
     0
 42
0.0000000001
 43
0.0000000001
 40
0.0
 40
0.0
 40
0.0
 40
0.0
 40
1.0
 40
1.0
 40
1.0
 40
2.0
 40
2.0
 40
2.0
 40
3.0
 40
3.0
 40
3.0
 40
4.0
 40
4.0
 40
4.0
 40
5.0
 40
5.0
 40
5.0
 40
6.0
 40
6.0
 40
6.0
 40
7.0
 40
7.0
 40
7.0
 40
8.0
 40
8.0
 40
8.0
 40
8.0
 10
51.6621522930998
 20
-239.9303754955728
 30
0.0
 10
48.42248820908385
 20
-240.3147621621438
 30
0.0
 10
45.48462550625719
 20
-238.0000813293887
 30
0.0
 10
45.10023884939704
 20
-234.7604524413099
 30
0.0
 10
45.10023884939704
 20
-234.7604524413099
 30
0.0
 10
40.36733702569899
 20
-194.8722571735041
 30
0.0
 10
40.36733702569899
 20
-194.8722571735041
 30
0.0
 10
39.98291509106197
 20
-191.6325577298696
 30
0.0
 10
42.29756058756599
 20
-188.6946596750484
 30
0.0
 10
45.53722467158194
 20
-188.3102730084781
 30
0.0
 10
45.53722467158194
 20
-188.3102730084781
 30
0.0
 10
177.7158226883138
 20
-172.626725512399
 30
0.0
 10
177.7158226883138
 20
-172.626725512399
 30
0.0
 10
180.9555220501066
 20
-172.2423035680505
 30
0.0
 10
183.8933847529333
 20
-174.5569491230274
 30
0.0
 10
184.2778066875704
 20
-177.7966838444394
 30
0.0
 10
184.2778066875704
 20
-177.7966838444394
 30
0.0
 10
189.0106732334915
 20
-217.6848791122452
 30
0.0
 10
189.0106732334915
 20
-217.6848791122452
 30
0.0
 10
189.3950999526514
 20
-220.9245080003247
 30
0.0
 10
187.0804496716245
 20
-223.8624060551452
 30
0.0
 10
183.8407855876086
 20
-224.2468279994937
 30
0.0
 10
183.8407855876086
 20
-224.2468279994937
 30
0.0
 10
51.6621522930998
 20
-239.9303754955728
 30
0.0
 10
51.6621522930998
 20
-239.9303754955728
 30
0.0
  0
SPLINE
  5
8E
330
7A
100
AcDbEntity
  8
Livello 1
100
AcDbSpline
210
0.0
220
0.0
230
1.0
 70
     9
 71
     3
 72
    29
 73
    25
 74
     0
 42
0.0000000001
 43
0.0000000001
 40
0.0
 40
0.0
 40
0.0
 40
0.0
 40
1.0
 40
1.0
 40
1.0
 40
2.0
 40
2.0
 40
2.0
 40
3.0
 40
3.0
 40
3.0
 40
4.0
 40
4.0
 40
4.0
 40
5.0
 40
5.0
 40
5.0
 40
6.0
 40
6.0
 40
6.0
 40
7.0
 40
7.0
 40
7.0
 40
8.0
 40
8.0
 40
8.0
 40
8.0
 10
194.1346997694334
 20
-217.0768313346197
 30
0.0
 10
194.1346997694334
 20
-217.0768313346197
 30
0.0
 10
189.4018027304275
 20
-177.188671344592
 30
0.0
 10
189.4018027304275
 20
-177.188671344592
 30
0.0
 10
188.6827662974127
 20
-171.1287252349954
 30
0.0
 10
183.1676856047808
 20
-166.7837377360821
 30
0.0
 10
177.1078499557232
 20
-167.5027694025686
 30
0.0
 10
177.1078499557232
 20
-167.5027694025686
 30
0.0
 10
44.92928274264739
 20
-183.1863168986478
 30
0.0
 10
44.92928274264739
 20
-183.1863168986478
 30
0.0
 10
38.86940832361584
 20
-183.905348565135
 30
0.0
 10
34.52435026914676
 20
-189.420288285978
 30
0.0
 10
35.24338193563365
 20
-195.4802343955746
 30
0.0
 10
35.24338193563365
 20
-195.4802343955746
 30
0.0
 10
39.97631814678582
 20
-235.3683943856022
 30
0.0
 10
39.97631814678582
 20
-235.3683943856022
 30
0.0
 10
40.69531451733158
 20
-241.4281993840875
 30
0.0
 10
46.21028937663285
 20
-245.7733985496679
 30
0.0
 10
52.27020005536498
 20
-245.0543668831807
 30
0.0
 10
52.27020005536498
 20
-245.0543668831807
 30
0.0
 10
184.44876279432
 20
-229.3708193871016
 30
0.0
 10
184.44876279432
 20
-229.3708193871016
 30
0.0
 10
190.5086029174984
 20
-228.651787720615
 30
0.0
 10
194.853731417756
 20
-223.1366363331049
 30
0.0
 10
194.1346997694334
 20
-217.0768313346197
 30
0.0
  0
HATCH
  5
8F
330
7A
100
AcDbEntity
  8
Livello 1
 62
   250
440
 33554687
100
AcDbHatch
 10
0.0
 20
0.0
 30
0.0
210
0.0
220
0.0
230
1.0
  2
SOLID
 70
     1
 71
     1
 91
        2
 92
        1
 93
        1
 72
     4
 94
        3
 73
     0
 74
     0
 95
       29
 96
       25
 40
0.0
 40
0.0
 40
0.0
 40
0.0
 40
1.0
 40
1.0
 40
1.0
 40
2.0
 40
2.0
 40
2.0
 40
3.0
 40
3.0
 40
3.0
 40
4.0
 40
4.0
 40
4.0
 40
5.0
 40
5.0
 40
5.0
 40
6.0
 40
6.0
 40
6.0
 40
7.0
 40
7.0
 40
7.0
 40
8.0
 40
8.0
 40
8.0
 40
8.0
 10
51.6621522930998
 20
-239.9303754955728
 10
48.42248820908385
 20
-240.3147621621438
 10
45.48462550625719
 20
-238.0000813293887
 10
45.10023884939704
 20
-234.7604524413099
 10
45.10023884939704
 20
-234.7604524413099
 10
40.36733702569899
 20
-194.8722571735041
 10
40.36733702569899
 20
-194.8722571735041
 10
39.98291509106197
 20
-191.6325577298696
 10
42.29756058756599
 20
-188.6946596750484
 10
45.53722467158194
 20
-188.3102730084781
 10
45.53722467158194
 20
-188.3102730084781
 10
177.7158226883138
 20
-172.626725512399
 10
177.7158226883138
 20
-172.626725512399
 10
180.9555220501066
 20
-172.2423035680505
 10
183.8933847529333
 20
-174.5569491230274
 10
184.2778066875704
 20
-177.7966838444394
 10
184.2778066875704
 20
-177.7966838444394
 10
189.0106732334915
 20
-217.6848791122452
 10
189.0106732334915
 20
-217.6848791122452
 10
189.3950999526514
 20
-220.9245080003247
 10
187.0804496716245
 20
-223.8624060551452
 10
183.8407855876086
 20
-224.2468279994937
 10
183.8407855876086
 20
-224.2468279994937
 10
51.6621522930998
 20
-239.9303754955728
 10
51.6621522930998
 20
-239.9303754955728
 97
        1
330
8D
 92
        1
 93
        1
 72
     4
 94
        3
 73
     0
 74
     0
 95
       29
 96
       25
 40
0.0
 40
0.0
 40
0.0
 40
0.0
 40
1.0
 40
1.0
 40
1.0
 40
2.0
 40
2.0
 40
2.0
 40
3.0
 40
3.0
 40
3.0
 40
4.0
 40
4.0
 40
4.0
 40
5.0
 40
5.0
 40
5.0
 40
6.0
 40
6.0
 40
6.0
 40
7.0
 40
7.0
 40
7.0
 40
8.0
 40
8.0
 40
8.0
 40
8.0
 10
194.1346997694334
 20
-217.0768313346197
 10
194.1346997694334
 20
-217.0768313346197
 10
189.4018027304275
 20
-177.188671344592
 10
189.4018027304275
 20
-177.188671344592
 10
188.6827662974127
 20
-171.1287252349954
 10
183.1676856047808
 20
-166.7837377360821
 10
177.1078499557232
 20
-167.5027694025686
 10
177.1078499557232
 20
-167.5027694025686
 10
44.92928274264739
 20
-183.1863168986478
 10
44.92928274264739
 20
-183.1863168986478
 10
38.86940832361584
 20
-183.905348565135
 10
34.52435026914676
 20
-189.420288285978
 10
35.24338193563365
 20
-195.4802343955746
 10
35.24338193563365
 20
-195.4802343955746
 10
39.97631814678582
 20
-235.3683943856022
 10
39.97631814678582
 20
-235.3683943856022
 10
40.69531451733158
 20
-241.4281993840875
 10
46.21028937663285
 20
-245.7733985496679
 10
52.27020005536498
 20
-245.0543668831807
 10
52.27020005536498
 20
-245.0543668831807
 10
184.44876279432
 20
-229.3708193871016
 10
184.44876279432
 20
-229.3708193871016
 10
190.5086029174984
 20
-228.651787720615
 10
194.853731417756
 20
-223.1366363331049
 10
194.1346997694334
 20
-217.0768313346197
 97
        1
330
8E
 75
     2
 76
     1
 98
        1
 10
0.0
 20
0.0
450
        0
451
        0
460
0.0
461
0.0
452
        0
462
0.0
453
        0
470

  0
SPLINE
  5
90
330
7A
100
AcDbEntity
  8
Livello 1
100
AcDbSpline
210
0.0
220
0.0
230
1.0
 70
     9
 71
     3
 72
    32
 73
    28
 74
     0
 42
0.0000000001
 43
0.0000000001
 40
0.0
 40
0.0
 40
0.0
 40
0.0
 40
1.0
 40
1.0
 40
1.0
 40
2.0
 40
2.0
 40
2.0
 40
3.0
 40
3.0
 40
3.0
 40
4.0
 40
4.0
 40
4.0
 40
5.0
 40
5.0
 40
5.0
 40
6.0
 40
6.0
 40
6.0
 40
7.0
 40
7.0
 40
7.0
 40
8.0
 40
8.0
 40
8.0
 40
9.0
 40
9.0
 40
9.0
 40
9.0
 10
-187.4665343975779
 20
-153.3820980172101
 30
0.0
 10
-189.3341046748886
 20
-150.7989180178556
 30
0.0
 10
-191.1344002299943
 20
-148.2713005184876
 30
0.0
 10
-192.8759582851142
 20
-145.8258802413213
 30
0.0
 10
-195.7787549510552
 20
-141.7504149645625
 30
0.0
 10
-198.5204732837032
 20
-137.9010096877469
 30
0.0
 10
-201.2584521719076
 20
-134.2233366331107
 30
0.0
 10
-212.0674927247609
 20
-119.703567747852
 30
0.0
 10
-216.5774391125222
 20
-106.5991785844613
 30
0.0
 10
-213.9572880020661
 20
-97.32401580900237
 30
0.0
 10
-213.576534946606
 20
-95.97598136489482
 30
0.0
 10
-213.0658538356224
 20
-94.76739997630801
 30
0.0
 10
-212.4840527246568
 20
-93.69294469879896
 30
0.0
 10
-212.4840527246568
 20
-93.69294469879896
 30
0.0
 10
-207.0541324482366
 20
-98.68520886421773
 30
0.0
 10
-207.0541324482366
 20
-98.68520886421773
 30
0.0
 10
-207.0678907815664
 20
-98.84466441973318
 30
0.0
 10
-207.0808377260075
 20
-99.00479025302663
 30
0.0
 10
-207.0928674482267
 20
-99.16301108632024
 30
0.0
 10
-207.9148043924659
 20
-109.9965344169453
 30
0.0
 10
-205.1280363376068
 20
-126.5207160794811
 30
0.0
 10
-187.1845943976482
 20
-143.7184916307369
 30
0.0
 10
-186.1451699534637
 20
-144.7147360749324
 30
0.0
 10
-185.0627771759566
 20
-145.70604163024
 30
0.0
 10
-183.934805509572
 20
-146.6950541299928
 30
0.0
 10
-185.3300768981121
 20
-149.0460357960721
 30
0.0
 10
-186.4906099533773
 20
-151.307235517729
 30
0.0
 10
-187.4665343975779
 20
-153.3820980172101
 30
0.0
  0
SPLINE
  5
91
330
7A
100
AcDbEntity
  8
Livello 1
100
AcDbSpline
210
0.0
220
0.0
230
1.0
 70
     9
 71
     3
 72
    53
 73
    49
 74
     0
 42
0.0000000001
 43
0.0000000001
 40
0.0
 40
0.0
 40
0.0
 40
0.0
 40
1.0
 40
1.0
 40
1.0
 40
2.0
 40
2.0
 40
2.0
 40
3.0
 40
3.0
 40
3.0
 40
4.0
 40
4.0
 40
4.0
 40
5.0
 40
5.0
 40
5.0
 40
6.0
 40
6.0
 40
6.0
 40
7.0
 40
7.0
 40
7.0
 40
8.0
 40
8.0
 40
8.0
 40
9.0
 40
9.0
 40
9.0
 40
10.0
 40
10.0
 40
10.0
 40
11.0
 40
11.0
 40
11.0
 40
12.0
 40
12.0
 40
12.0
 40
13.0
 40
13.0
 40
13.0
 40
14.0
 40
14.0
 40
14.0
 40
15.0
 40
15.0
 40
15.0
 40
16.0
 40
16.0
 40
16.0
 40
16.0
 10
-183.6140952318744
 20
-139.9934052427793
 30
0.0
 10
-200.1038810610852
 20
-124.1888196911749
 30
0.0
 10
-202.6855441159952
 20
-109.2784905282359
 30
0.0
 10
-201.947779949513
 20
-99.55335969733404
 30
0.0
 10
-201.937126060627
 20
-99.41373025292442
 30
0.0
 10
-201.9257666161852
 20
-99.27223108629311
 30
0.0
 10
-201.9135252272993
 20
-99.1313316418838
 30
0.0
 10
-201.9135252272993
 20
-99.1313316418838
 30
0.0
 10
-201.694309116243
 20
-96.60399636473787
 30
0.0
 10
-201.694309116243
 20
-96.60399636473787
 30
0.0
 10
-201.694309116243
 20
-96.60399636473787
 30
0.0
 10
-213.867223835422
 20
-85.41162747864722
 30
0.0
 10
-213.867223835422
 20
-85.41162747864722
 30
0.0
 10
-213.867223835422
 20
-85.41162747864722
 30
0.0
 10
-217.0212335568557
 20
-91.23563581052456
 30
0.0
 10
-217.0212335568557
 20
-91.23563581052456
 30
0.0
 10
-217.8229210566556
 20
-92.71613831015427
 30
0.0
 10
-218.4628599453843
 20
-94.29256108753799
 30
0.0
 10
-218.9229880008247
 20
-95.92137136490839
 30
0.0
 10
-222.0328652222696
 20
-106.9306133066005
 30
0.0
 10
-217.3558785567722
 20
-121.2407263585787
 30
0.0
 10
-205.3974880042064
 20
-137.3046035767849
 30
0.0
 10
-202.6980324493257
 20
-140.9304182981007
 30
0.0
 10
-199.9782216166721
 20
-144.7487438527016
 30
0.0
 10
-197.0988493951697
 20
-148.7912596850242
 30
0.0
 10
-197.0988493951697
 20
-148.7912596850242
 30
0.0
 10
-197.0787763396192
 20
-148.8195171850172
 30
0.0
 10
-197.0787763396192
 20
-148.8195171850172
 30
0.0
 10
-195.3390880067207
 20
-151.2622563510734
 30
0.0
 10
-193.5398507849484
 20
-153.7885685726642
 30
0.0
 10
-191.6480446743104
 20
-156.4053330164541
 30
0.0
 10
-191.6480446743104
 20
-156.4053330164541
 30
0.0
 10
-186.5215485644806
 20
-163.4963074591262
 30
0.0
 10
-186.5215485644806
 20
-163.4963074591262
 30
0.0
 10
-186.5215485644806
 20
-163.4963074591262
 30
0.0
 10
-182.797379398745
 20
-155.578210238883
 30
0.0
 10
-182.797379398745
 20
-155.578210238883
 30
0.0
 10
-181.7454666212304
 20
-153.3417755172199
 30
0.0
 10
-180.6661077326111
 20
-151.29756940662
 30
0.0
 10
-179.4975666217922
 20
-149.3287166293344
 30
0.0
 10
-179.4975666217922
 20
-149.3287166293344
 30
0.0
 10
-177.309250789006
 20
-145.6416949635896
 30
0.0
 10
-177.309250789006
 20
-145.6416949635896
 30
0.0
 10
-177.309250789006
 20
-145.6416949635896
 30
0.0
 10
-180.5331105104223
 20
-142.8152746865185
 30
0.0
 10
-180.5331105104223
 20
-142.8152746865185
 30
0.0
 10
-181.5981113434894
 20
-141.8815424645296
 30
0.0
 10
-182.63474884323
 20
-140.932076353656
 30
0.0
 10
-183.6140952318744
 20
-139.9934052427793
 30
0.0
  0
HATCH
  5
92
330
7A
100
AcDbEntity
  8
Livello 1
 62
   250
440
 33554687
100
AcDbHatch
 10
0.0
 20
0.0
 30
0.0
210
0.0
220
0.0
230
1.0
  2
SOLID
 70
     1
 71
     1
 91
        2
 92
        1
 93
        1
 72
     4
 94
        3
 73
     0
 74
     0
 95
       32
 96
       28
 40
0.0
 40
0.0
 40
0.0
 40
0.0
 40
1.0
 40
1.0
 40
1.0
 40
2.0
 40
2.0
 40
2.0
 40
3.0
 40
3.0
 40
3.0
 40
4.0
 40
4.0
 40
4.0
 40
5.0
 40
5.0
 40
5.0
 40
6.0
 40
6.0
 40
6.0
 40
7.0
 40
7.0
 40
7.0
 40
8.0
 40
8.0
 40
8.0
 40
9.0
 40
9.0
 40
9.0
 40
9.0
 10
-187.4665343975779
 20
-153.3820980172101
 10
-189.3341046748886
 20
-150.7989180178556
 10
-191.1344002299943
 20
-148.2713005184876
 10
-192.8759582851142
 20
-145.8258802413213
 10
-195.7787549510552
 20
-141.7504149645625
 10
-198.5204732837032
 20
-137.9010096877469
 10
-201.2584521719076
 20
-134.2233366331107
 10
-212.0674927247609
 20
-119.703567747852
 10
-216.5774391125222
 20
-106.5991785844613
 10
-213.9572880020661
 20
-97.32401580900237
 10
-213.576534946606
 20
-95.97598136489482
 10
-213.0658538356224
 20
-94.76739997630801
 10
-212.4840527246568
 20
-93.69294469879896
 10
-212.4840527246568
 20
-93.69294469879896
 10
-207.0541324482366
 20
-98.68520886421773
 10
-207.0541324482366
 20
-98.68520886421773
 10
-207.0678907815664
 20
-98.84466441973318
 10
-207.0808377260075
 20
-99.00479025302663
 10
-207.0928674482267
 20
-99.16301108632024
 10
-207.9148043924659
 20
-109.9965344169453
 10
-205.1280363376068
 20
-126.5207160794811
 10
-187.1845943976482
 20
-143.7184916307369
 10
-186.1451699534637
 20
-144.7147360749324
 10
-185.0627771759566
 20
-145.70604163024
 10
-183.934805509572
 20
-146.6950541299928
 10
-185.3300768981121
 20
-149.0460357960721
 10
-186.4906099533773
 20
-151.307235517729
 10
-187.4665343975779
 20
-153.3820980172101
 97
        1
330
90
 92
        1
 93
        1
 72
     4
 94
        3
 73
     0
 74
     0
 95
       53
 96
       49
 40
0.0
 40
0.0
 40
0.0
 40
0.0
 40
1.0
 40
1.0
 40
1.0
 40
2.0
 40
2.0
 40
2.0
 40
3.0
 40
3.0
 40
3.0
 40
4.0
 40
4.0
 40
4.0
 40
5.0
 40
5.0
 40
5.0
 40
6.0
 40
6.0
 40
6.0
 40
7.0
 40
7.0
 40
7.0
 40
8.0
 40
8.0
 40
8.0
 40
9.0
 40
9.0
 40
9.0
 40
10.0
 40
10.0
 40
10.0
 40
11.0
 40
11.0
 40
11.0
 40
12.0
 40
12.0
 40
12.0
 40
13.0
 40
13.0
 40
13.0
 40
14.0
 40
14.0
 40
14.0
 40
15.0
 40
15.0
 40
15.0
 40
16.0
 40
16.0
 40
16.0
 40
16.0
 10
-183.6140952318744
 20
-139.9934052427793
 10
-200.1038810610852
 20
-124.1888196911749
 10
-202.6855441159952
 20
-109.2784905282359
 10
-201.947779949513
 20
-99.55335969733404
 10
-201.937126060627
 20
-99.41373025292442
 10
-201.9257666161852
 20
-99.27223108629311
 10
-201.9135252272993
 20
-99.1313316418838
 10
-201.9135252272993
 20
-99.1313316418838
 10
-201.694309116243
 20
-96.60399636473787
 10
-201.694309116243
 20
-96.60399636473787
 10
-201.694309116243
 20
-96.60399636473787
 10
-213.867223835422
 20
-85.41162747864722
 10
-213.867223835422
 20
-85.41162747864722
 10
-213.867223835422
 20
-85.41162747864722
 10
-217.0212335568557
 20
-91.23563581052456
 10
-217.0212335568557
 20
-91.23563581052456
 10
-217.8229210566556
 20
-92.71613831015427
 10
-218.4628599453843
 20
-94.29256108753799
 10
-218.9229880008247
 20
-95.92137136490839
 10
-222.0328652222696
 20
-106.9306133066005
 10
-217.3558785567722
 20
-121.2407263585787
 10
-205.3974880042064
 20
-137.3046035767849
 10
-202.6980324493257
 20
-140.9304182981007
 10
-199.9782216166721
 20
-144.7487438527016
 10
-197.0988493951697
 20
-148.7912596850242
 10
-197.0988493951697
 20
-148.7912596850242
 10
-197.0787763396192
 20
-148.8195171850172
 10
-197.0787763396192
 20
-148.8195171850172
 10
-195.3390880067207
 20
-151.2622563510734
 10
-193.5398507849484
 20
-153.7885685726642
 10
-191.6480446743104
 20
-156.4053330164541
 10
-191.6480446743104
 20
-156.4053330164541
 10
-186.5215485644806
 20
-163.4963074591262
 10
-186.5215485644806
 20
-163.4963074591262
 10
-186.5215485644806
 20
-163.4963074591262
 10
-182.797379398745
 20
-155.578210238883
 10
-182.797379398745
 20
-155.578210238883
 10
-181.7454666212304
 20
-153.3417755172199
 10
-180.6661077326111
 20
-151.29756940662
 10
-179.4975666217922
 20
-149.3287166293344
 10
-179.4975666217922
 20
-149.3287166293344
 10
-177.309250789006
 20
-145.6416949635896
 10
-177.309250789006
 20
-145.6416949635896
 10
-177.309250789006
 20
-145.6416949635896
 10
-180.5331105104223
 20
-142.8152746865185
 10
-180.5331105104223
 20
-142.8152746865185
 10
-181.5981113434894
 20
-141.8815424645296
 10
-182.63474884323
 20
-140.932076353656
 10
-183.6140952318744
 20
-139.9934052427793
 97
        1
330
91
 75
     2
 76
     1
 98
        1
 10
0.0
 20
0.0
450
        0
451
        0
460
0.0
461
0.0
452
        0
462
0.0
453
        0
470

  0
SPLINE
  5
93
330
7A
100
AcDbEntity
  8
Livello 1
100
AcDbSpline
210
0.0
220
0.0
230
1.0
 70
     9
 71
     3
 72
    32
 73
    28
 74
     0
 42
0.0000000001
 43
0.0000000001
 40
0.0
 40
0.0
 40
0.0
 40
0.0
 40
1.0
 40
1.0
 40
1.0
 40
2.0
 40
2.0
 40
2.0
 40
3.0
 40
3.0
 40
3.0
 40
4.0
 40
4.0
 40
4.0
 40
5.0
 40
5.0
 40
5.0
 40
6.0
 40
6.0
 40
6.0
 40
7.0
 40
7.0
 40
7.0
 40
8.0
 40
8.0
 40
8.0
 40
9.0
 40
9.0
 40
9.0
 40
9.0
 10
231.6878932558161
 20
-234.6846052191066
 30
0.0
 10
229.9919141324174
 20
-236.9391727185431
 30
0.0
 10
228.5704313909047
 20
-239.3685768846026
 30
0.0
 10
227.437556142029
 20
-241.9154913284098
 30
0.0
 10
223.132362085197
 20
-249.5383488265045
 30
0.0
 10
221.5796107359221
 20
-258.5615929909153
 30
0.0
 10
223.1738134730283
 20
-267.2388327109684
 30
0.0
 10
224.1032065048731
 20
-272.2975249319257
 30
0.0
 10
226.0856058987423
 20
-277.0786515973969
 30
0.0
 10
228.9208808264084
 20
-281.2792824296803
 30
0.0
 10
210.8138210105802
 20
-280.940157151987
 30
0.0
 10
191.4383487271119
 20
-279.8452760411495
 30
0.0
 10
168.1172687665267
 20
-278.4540968748308
 30
0.0
 10
143.7056821670959
 20
-276.8561193752307
 30
0.0
 10
121.4528485681463
 20
-274.2649665981003
 30
0.0
 10
95.55811367322053
 20
-269.9594902102878
 30
0.0
 10
95.55811367322053
 20
-269.9594902102878
 30
0.0
 10
187.9638805085645
 20
-258.9951568796956
 30
0.0
 10
187.9638805085645
 20
-258.9951568796956
 30
0.0
 10
208.1934582996535
 20
-256.5948216025181
 30
0.0
 10
223.2520243043663
 20
-239.7316557734003
 30
0.0
 10
224.0160054995513
 20
-219.9862249450037
 30
0.0
 10
228.0016888318885
 20
-223.0998768886697
 30
0.0
 10
232.3316068505047
 20
-226.1435377212418
 30
0.0
 10
236.9536306214759
 20
-229.022310220522
 30
0.0
 10
235.0185740041767
 20
-230.7129624423217
 30
0.0
 10
233.2500637715174
 20
-232.6080846640699
 30
0.0
 10
231.6878932558161
 20
-234.6846052191066
 30
0.0
  0
SPLINE
  5
94
330
7A
100
AcDbEntity
  8
Livello 1
100
AcDbSpline
210
0.0
220
0.0
230
1.0
 70
     9
 71
     3
 72
    65
 73
    61
 74
     0
 42
0.0000000001
 43
0.0000000001
 40
0.0
 40
0.0
 40
0.0
 40
0.0
 40
1.0
 40
1.0
 40
1.0
 40
2.0
 40
2.0
 40
2.0
 40
3.0
 40
3.0
 40
3.0
 40
4.0
 40
4.0
 40
4.0
 40
5.0
 40
5.0
 40
5.0
 40
6.0
 40
6.0
 40
6.0
 40
7.0
 40
7.0
 40
7.0
 40
8.0
 40
8.0
 40
8.0
 40
9.0
 40
9.0
 40
9.0
 40
10.0
 40
10.0
 40
10.0
 40
11.0
 40
11.0
 40
11.0
 40
12.0
 40
12.0
 40
12.0
 40
13.0
 40
13.0
 40
13.0
 40
14.0
 40
14.0
 40
14.0
 40
15.0
 40
15.0
 40
15.0
 40
16.0
 40
16.0
 40
16.0
 40
17.0
 40
17.0
 40
17.0
 40
18.0
 40
18.0
 40
18.0
 40
19.0
 40
19.0
 40
19.0
 40
20.0
 40
20.0
 40
20.0
 40
20.0
 10
227.1925519816129
 20
-215.9199318904647
 30
0.0
 10
227.1925519816129
 20
-215.9199318904647
 30
0.0
 10
219.2497605175837
 20
-209.7149941142377
 30
0.0
 10
219.2497605175837
 20
-209.7149941142377
 30
0.0
 10
219.2497605175837
 20
-209.7149941142377
 30
0.0
 10
218.8599410830844
 20
-219.7867643894975
 30
0.0
 10
218.8599410830844
 20
-219.7867643894975
 30
0.0
 10
218.5349269247095
 20
-228.1862268873981
 30
0.0
 10
215.204528398564
 20
-236.256829940936
 30
0.0
 10
209.4822966001058
 20
-242.512214939372
 30
0.0
 10
203.7031264697669
 20
-248.8299710489039
 30
0.0
 10
195.8451427813519
 20
-252.8638791034509
 30
0.0
 10
187.3558985534861
 20
-253.8711302143102
 30
0.0
 10
187.3558985534861
 20
-253.8711302143102
 30
0.0
 10
94.95013886515122
 20
-264.8354988226799
 30
0.0
 10
94.95013886515122
 20
-264.8354988226799
 30
0.0
 10
94.95013886515122
 20
-264.8354988226799
 30
0.0
 10
94.71179980592291
 20
-275.0495090979044
 30
0.0
 10
94.71179980592291
 20
-275.0495090979044
 30
0.0
 10
120.5784183126771
 20
-279.3503993746067
 30
0.0
 10
143.1134777419992
 20
-281.9883304850583
 30
0.0
 10
167.7802954417903
 20
-283.6031707624329
 30
0.0
 10
167.7802954417903
 20
-283.6031707624329
 30
0.0
 10
167.8101404410288
 20
-283.6050052068767
 30
0.0
 10
167.8101404410288
 20
-283.6050052068767
 30
0.0
 10
191.2181801216178
 20
-285.0014054843054
 30
0.0
 10
210.5742849055802
 20
-286.0966040951425
 30
0.0
 10
228.8242902733171
 20
-286.4383752061684
 30
0.0
 10
228.8242902733171
 20
-286.4383752061684
 30
0.0
 10
238.7537144644408
 20
-286.6242538172327
 30
0.0
 10
238.7537144644408
 20
-286.6242538172327
 30
0.0
 10
238.7537144644408
 20
-286.6242538172327
 30
0.0
 10
233.1977821061845
 20
-278.3925724304018
 30
0.0
 10
233.1977821061845
 20
-278.3925724304018
 30
0.0
 10
230.7452710576422
 20
-274.7589260424212
 30
0.0
 10
229.0337697124173
 20
-270.5794618767996
 30
0.0
 10
228.2486332762715
 20
-266.3063704889791
 30
0.0
 10
226.8778742118632
 20
-258.8450852130664
 30
0.0
 10
228.185486054065
 20
-251.083938826118
 30
0.0
 10
231.9304279718507
 20
-244.4529513277756
 30
0.0
 10
231.9304279718507
 20
-244.4529513277756
 30
0.0
 10
232.0518188020871
 20
-244.2381096611626
 30
0.0
 10
232.0518188020871
 20
-244.2381096611626
 30
0.0
 10
232.0518188020871
 20
-244.2381096611626
 30
0.0
 10
232.1520782439737
 20
-244.0126141056635
 30
0.0
 10
232.1520782439737
 20
-244.0126141056635
 30
0.0
 10
233.1353110528272
 20
-241.8018616062162
 30
0.0
 10
234.3665701319218
 20
-239.7072435511843
 30
0.0
 10
235.8113714839507
 20
-237.7865096627753
 30
0.0
 10
237.1429664499789
 20
-236.016482440996
 30
0.0
 10
238.6695064110336
 20
-234.3750074414063
 30
0.0
 10
240.3486227570847
 20
-232.90805160844
 30
0.0
 10
240.3486227570847
 20
-232.90805160844
 30
0.0
 10
245.5939695677092
 20
-228.3250449429189
 30
0.0
 10
245.5939695677092
 20
-228.3250449429189
 30
0.0
 10
245.5939695677092
 20
-228.3250449429189
 30
0.0
 10
239.6815905518799
 20
-224.6423977216173
 30
0.0
 10
239.6815905518799
 20
-224.6423977216173
 30
0.0
 10
235.3490562179676
 20
-221.9439299445141
 30
0.0
 10
231.1471907696105
 20
-219.0092421674698
 30
0.0
 10
227.1925519816129
 20
-215.9199318904647
 30
0.0
  0
HATCH
  5
95
330
7A
100
AcDbEntity
  8
Livello 1
 62
   250
440
 33554687
100
AcDbHatch
 10
0.0
 20
0.0
 30
0.0
210
0.0
220
0.0
230
1.0
  2
SOLID
 70
     1
 71
     1
 91
        2
 92
        1
 93
        1
 72
     4
 94
        3
 73
     0
 74
     0
 95
       32
 96
       28
 40
0.0
 40
0.0
 40
0.0
 40
0.0
 40
1.0
 40
1.0
 40
1.0
 40
2.0
 40
2.0
 40
2.0
 40
3.0
 40
3.0
 40
3.0
 40
4.0
 40
4.0
 40
4.0
 40
5.0
 40
5.0
 40
5.0
 40
6.0
 40
6.0
 40
6.0
 40
7.0
 40
7.0
 40
7.0
 40
8.0
 40
8.0
 40
8.0
 40
9.0
 40
9.0
 40
9.0
 40
9.0
 10
231.6878932558161
 20
-234.6846052191066
 10
229.9919141324174
 20
-236.9391727185431
 10
228.5704313909047
 20
-239.3685768846026
 10
227.437556142029
 20
-241.9154913284098
 10
223.132362085197
 20
-249.5383488265045
 10
221.5796107359221
 20
-258.5615929909153
 10
223.1738134730283
 20
-267.2388327109684
 10
224.1032065048731
 20
-272.2975249319257
 10
226.0856058987423
 20
-277.0786515973969
 10
228.9208808264084
 20
-281.2792824296803
 10
210.8138210105802
 20
-280.940157151987
 10
191.4383487271119
 20
-279.8452760411495
 10
168.1172687665267
 20
-278.4540968748308
 10
143.7056821670959
 20
-276.8561193752307
 10
121.4528485681463
 20
-274.2649665981003
 10
95.55811367322053
 20
-269.9594902102878
 10
95.55811367322053
 20
-269.9594902102878
 10
187.9638805085645
 20
-258.9951568796956
 10
187.9638805085645
 20
-258.9951568796956
 10
208.1934582996535
 20
-256.5948216025181
 10
223.2520243043663
 20
-239.7316557734003
 10
224.0160054995513
 20
-219.9862249450037
 10
228.0016888318885
 20
-223.0998768886697
 10
232.3316068505047
 20
-226.1435377212418
 10
236.9536306214759
 20
-229.022310220522
 10
235.0185740041767
 20
-230.7129624423217
 10
233.2500637715174
 20
-232.6080846640699
 10
231.6878932558161
 20
-234.6846052191066
 97
        1
330
93
 92
        1
 93
        1
 72
     4
 94
        3
 73
     0
 74
     0
 95
       65
 96
       61
 40
0.0
 40
0.0
 40
0.0
 40
0.0
 40
1.0
 40
1.0
 40
1.0
 40
2.0
 40
2.0
 40
2.0
 40
3.0
 40
3.0
 40
3.0
 40
4.0
 40
4.0
 40
4.0
 40
5.0
 40
5.0
 40
5.0
 40
6.0
 40
6.0
 40
6.0
 40
7.0
 40
7.0
 40
7.0
 40
8.0
 40
8.0
 40
8.0
 40
9.0
 40
9.0
 40
9.0
 40
10.0
 40
10.0
 40
10.0
 40
11.0
 40
11.0
 40
11.0
 40
12.0
 40
12.0
 40
12.0
 40
13.0
 40
13.0
 40
13.0
 40
14.0
 40
14.0
 40
14.0
 40
15.0
 40
15.0
 40
15.0
 40
16.0
 40
16.0
 40
16.0
 40
17.0
 40
17.0
 40
17.0
 40
18.0
 40
18.0
 40
18.0
 40
19.0
 40
19.0
 40
19.0
 40
20.0
 40
20.0
 40
20.0
 40
20.0
 10
227.1925519816129
 20
-215.9199318904647
 10
227.1925519816129
 20
-215.9199318904647
 10
219.2497605175837
 20
-209.7149941142377
 10
219.2497605175837
 20
-209.7149941142377
 10
219.2497605175837
 20
-209.7149941142377
 10
218.8599410830844
 20
-219.7867643894975
 10
218.8599410830844
 20
-219.7867643894975
 10
218.5349269247095
 20
-228.1862268873981
 10
215.204528398564
 20
-236.256829940936
 10
209.4822966001058
 20
-242.512214939372
 10
203.7031264697669
 20
-248.8299710489039
 10
195.8451427813519
 20
-252.8638791034509
 10
187.3558985534861
 20
-253.8711302143102
 10
187.3558985534861
 20
-253.8711302143102
 10
94.95013886515122
 20
-264.8354988226799
 10
94.95013886515122
 20
-264.8354988226799
 10
94.95013886515122
 20
-264.8354988226799
 10
94.71179980592291
 20
-275.0495090979044
 10
94.71179980592291
 20
-275.0495090979044
 10
120.5784183126771
 20
-279.3503993746067
 10
143.1134777419992
 20
-281.9883304850583
 10
167.7802954417903
 20
-283.6031707624329
 10
167.7802954417903
 20
-283.6031707624329
 10
167.8101404410288
 20
-283.6050052068767
 10
167.8101404410288
 20
-283.6050052068767
 10
191.2181801216178
 20
-285.0014054843054
 10
210.5742849055802
 20
-286.0966040951425
 10
228.8242902733171
 20
-286.4383752061684
 10
228.8242902733171
 20
-286.4383752061684
 10
238.7537144644408
 20
-286.6242538172327
 10
238.7537144644408
 20
-286.6242538172327
 10
238.7537144644408
 20
-286.6242538172327
 10
233.1977821061845
 20
-278.3925724304018
 10
233.1977821061845
 20
-278.3925724304018
 10
230.7452710576422
 20
-274.7589260424212
 10
229.0337697124173
 20
-270.5794618767996
 10
228.2486332762715
 20
-266.3063704889791
 10
226.8778742118632
 20
-258.8450852130664
 10
228.185486054065
 20
-251.083938826118
 10
231.9304279718507
 20
-244.4529513277756
 10
231.9304279718507
 20
-244.4529513277756
 10
232.0518188020871
 20
-244.2381096611626
 10
232.0518188020871
 20
-244.2381096611626
 10
232.0518188020871
 20
-244.2381096611626
 10
232.1520782439737
 20
-244.0126141056635
 10
232.1520782439737
 20
-244.0126141056635
 10
233.1353110528272
 20
-241.8018616062162
 10
234.3665701319218
 20
-239.7072435511843
 10
235.8113714839507
 20
-237.7865096627753
 10
237.1429664499789
 20
-236.016482440996
 10
238.6695064110336
 20
-234.3750074414063
 10
240.3486227570847
 20
-232.90805160844
 10
240.3486227570847
 20
-232.90805160844
 10
245.5939695677092
 20
-228.3250449429189
 10
245.5939695677092
 20
-228.3250449429189
 10
245.5939695677092
 20
-228.3250449429189
 10
239.6815905518799
 20
-224.6423977216173
 10
239.6815905518799
 20
-224.6423977216173
 10
235.3490562179676
 20
-221.9439299445141
 10
231.1471907696105
 20
-219.0092421674698
 10
227.1925519816129
 20
-215.9199318904647
 97
        1
330
94
 75
     2
 76
     1
 98
        1
 10
0.0
 20
0.0
450
        0
451
        0
460
0.0
461
0.0
452
        0
462
0.0
453
        0
470

  0
SPLINE
  5
96
330
7A
100
AcDbEntity
  8
Livello 1
100
AcDbSpline
210
0.0
220
0.0
230
1.0
 70
     9
 71
     3
 72
    23
 73
    19
 74
     0
 42
0.0000000001
 43
0.0000000001
 40
0.0
 40
0.0
 40
0.0
 40
0.0
 40
1.0
 40
1.0
 40
1.0
 40
2.0
 40
2.0
 40
2.0
 40
3.0
 40
3.0
 40
3.0
 40
4.0
 40
4.0
 40
4.0
 40
5.0
 40
5.0
 40
5.0
 40
6.0
 40
6.0
 40
6.0
 40
6.0
 10
-2.063993416150743
 20
-250.5944949373517
 30
0.0
 10
-1.386190888542372
 20
-248.1754977157342
 30
0.0
 10
-0.6978191387144751
 20
-245.7717757718905
 30
0.0
 10
0.0292463361039556
 20
-243.2330104947474
 30
0.0
 10
1.260824249684747
 20
-238.9331785513778
 30
0.0
 10
2.534369666033108
 20
-234.4866968858228
 30
0.0
 10
3.752356110172957
 20
-229.9553721647336
 30
0.0
 10
5.24153694313405
 20
-224.4143268883407
 30
0.0
 10
6.462994720606585
 20
-219.3952868895957
 30
0.0
 10
7.475078887020049
 20
-214.6376905018962
 30
0.0
 10
7.475078887020049
 20
-214.6376905018962
 30
0.0
 10
10.35194638630099
 20
-238.8835074402794
 30
0.0
 10
10.35194638630099
 20
-238.8835074402794
 30
0.0
 10
11.01707360835697
 20
-244.4891110499892
 30
0.0
 10
12.79352138569037
 20
-249.6989685486865
 30
0.0
 10
15.43314582947519
 20
-254.316265214199
 30
0.0
 10
9.813043053102262
 20
-253.1273335478291
 30
0.0
 10
3.992386110113017
 20
-251.8881310481392
 30
0.0
 10
-2.063993416150743
 20
-250.5944949373517
 30
0.0
  0
SPLINE
  5
97
330
7A
100
AcDbEntity
  8
Livello 1
100
AcDbSpline
210
0.0
220
0.0
230
1.0
 70
     9
 71
     3
 72
    38
 73
    34
 74
     0
 42
0.0000000001
 43
0.0000000001
 40
0.0
 40
0.0
 40
0.0
 40
0.0
 40
1.0
 40
1.0
 40
1.0
 40
2.0
 40
2.0
 40
2.0
 40
3.0
 40
3.0
 40
3.0
 40
4.0
 40
4.0
 40
4.0
 40
5.0
 40
5.0
 40
5.0
 40
6.0
 40
6.0
 40
6.0
 40
7.0
 40
7.0
 40
7.0
 40
8.0
 40
8.0
 40
8.0
 40
9.0
 40
9.0
 40
9.0
 40
10.0
 40
10.0
 40
10.0
 40
11.0
 40
11.0
 40
11.0
 40
11.0
 10
15.47600832946422
 20
-238.2754596626532
 30
0.0
 10
15.47600832946422
 20
-238.2754596626532
 30
0.0
 10
12.59917610796144
 20
-214.0297838353813
 30
0.0
 10
12.59917610796144
 20
-214.0297838353813
 30
0.0
 10
12.59917610796144
 20
-214.0297838353813
 30
0.0
 10
2.428261166059463
 20
-213.5639760577198
 30
0.0
 10
2.428261166059463
 20
-213.5639760577198
 30
0.0
 10
1.440183527417725
 20
-218.2076252232262
 30
0.0
 10
0.2434022027170231
 20
-223.1312035553284
 30
0.0
 10
-1.230732305247919
 20
-228.6161924428463
 30
0.0
 10
-2.438950332723582
 20
-233.1106871639447
 30
0.0
 10
-3.70585999907343
 20
-237.5343793850611
 30
0.0
 10
-4.931198332100378
 20
-241.8122685506582
 30
0.0
 10
-5.659437498584987
 20
-244.3548791055779
 30
0.0
 10
-6.34724833174641
 20
-246.7563079938668
 30
0.0
 10
-7.032624998241985
 20
-249.202186882144
 30
0.0
 10
-7.032624998241985
 20
-249.202186882144
 30
0.0
 10
-8.514961942315853
 20
-254.4927952141545
 30
0.0
 10
-8.514961942315853
 20
-254.4927952141545
 30
0.0
 10
-8.514961942315853
 20
-254.4927952141545
 30
0.0
 10
-3.141920026992155
 20
-255.6405577138678
 30
0.0
 10
-3.141920026992155
 20
-255.6405577138678
 30
0.0
 10
3.478886304685986
 20
-257.0547732690697
 30
0.0
 10
9.205453886587365
 20
-258.2730207687648
 30
0.0
 10
14.36518166307528
 20
-259.3644799351586
 30
0.0
 10
14.36518166307528
 20
-259.3644799351586
 30
0.0
 10
25.62411971581616
 20
-261.7464002123413
 30
0.0
 10
25.62411971581616
 20
-261.7464002123413
 30
0.0
 10
25.62411971581616
 20
-261.7464002123413
 30
0.0
 10
19.91282388391083
 20
-251.7555218815053
 30
0.0
 10
19.91282388391083
 20
-251.7555218815053
 30
0.0
 10
17.53693610672696
 20
-247.5994116047665
 30
0.0
 10
16.04419221821105
 20
-243.0640652170118
 30
0.0
 10
15.47600832946422
 20
-238.2754596626532
 30
0.0
  0
HATCH
  5
98
330
7A
100
AcDbEntity
  8
Livello 1
 62
   250
440
 33554687
100
AcDbHatch
 10
0.0
 20
0.0
 30
0.0
210
0.0
220
0.0
230
1.0
  2
SOLID
 70
     1
 71
     1
 91
        2
 92
        1
 93
        1
 72
     4
 94
        3
 73
     0
 74
     0
 95
       23
 96
       19
 40
0.0
 40
0.0
 40
0.0
 40
0.0
 40
1.0
 40
1.0
 40
1.0
 40
2.0
 40
2.0
 40
2.0
 40
3.0
 40
3.0
 40
3.0
 40
4.0
 40
4.0
 40
4.0
 40
5.0
 40
5.0
 40
5.0
 40
6.0
 40
6.0
 40
6.0
 40
6.0
 10
-2.063993416150743
 20
-250.5944949373517
 10
-1.386190888542372
 20
-248.1754977157342
 10
-0.6978191387144751
 20
-245.7717757718905
 10
0.0292463361039556
 20
-243.2330104947474
 10
1.260824249684747
 20
-238.9331785513778
 10
2.534369666033108
 20
-234.4866968858228
 10
3.752356110172957
 20
-229.9553721647336
 10
5.24153694313405
 20
-224.4143268883407
 10
6.462994720606585
 20
-219.3952868895957
 10
7.475078887020049
 20
-214.6376905018962
 10
7.475078887020049
 20
-214.6376905018962
 10
10.35194638630099
 20
-238.8835074402794
 10
10.35194638630099
 20
-238.8835074402794
 10
11.01707360835697
 20
-244.4891110499892
 10
12.79352138569037
 20
-249.6989685486865
 10
15.43314582947519
 20
-254.316265214199
 10
9.813043053102262
 20
-253.1273335478291
 10
3.992386110113017
 20
-251.8881310481392
 10
-2.063993416150743
 20
-250.5944949373517
 97
        1
330
96
 92
        1
 93
        1
 72
     4
 94
        3
 73
     0
 74
     0
 95
       38
 96
       34
 40
0.0
 40
0.0
 40
0.0
 40
0.0
 40
1.0
 40
1.0
 40
1.0
 40
2.0
 40
2.0
 40
2.0
 40
3.0
 40
3.0
 40
3.0
 40
4.0
 40
4.0
 40
4.0
 40
5.0
 40
5.0
 40
5.0
 40
6.0
 40
6.0
 40
6.0
 40
7.0
 40
7.0
 40
7.0
 40
8.0
 40
8.0
 40
8.0
 40
9.0
 40
9.0
 40
9.0
 40
10.0
 40
10.0
 40
10.0
 40
11.0
 40
11.0
 40
11.0
 40
11.0
 10
15.47600832946422
 20
-238.2754596626532
 10
15.47600832946422
 20
-238.2754596626532
 10
12.59917610796144
 20
-214.0297838353813
 10
12.59917610796144
 20
-214.0297838353813
 10
12.59917610796144
 20
-214.0297838353813
 10
2.428261166059463
 20
-213.5639760577198
 10
2.428261166059463
 20
-213.5639760577198
 10
1.440183527417725
 20
-218.2076252232262
 10
0.2434022027170231
 20
-223.1312035553284
 10
-1.230732305247919
 20
-228.6161924428463
 10
-2.438950332723582
 20
-233.1106871639447
 10
-3.70585999907343
 20
-237.5343793850611
 10
-4.931198332100378
 20
-241.8122685506582
 10
-5.659437498584987
 20
-244.3548791055779
 10
-6.34724833174641
 20
-246.7563079938668
 10
-7.032624998241985
 20
-249.202186882144
 10
-7.032624998241985
 20
-249.202186882144
 10
-8.514961942315853
 20
-254.4927952141545
 10
-8.514961942315853
 20
-254.4927952141545
 10
-8.514961942315853
 20
-254.4927952141545
 10
-3.141920026992155
 20
-255.6405577138678
 10
-3.141920026992155
 20
-255.6405577138678
 10
3.478886304685986
 20
-257.0547732690697
 10
9.205453886587365
 20
-258.2730207687648
 10
14.36518166307528
 20
-259.3644799351586
 10
14.36518166307528
 20
-259.3644799351586
 10
25.62411971581616
 20
-261.7464002123413
 10
25.62411971581616
 20
-261.7464002123413
 10
25.62411971581616
 20
-261.7464002123413
 10
19.91282388391083
 20
-251.7555218815053
 10
19.91282388391083
 20
-251.7555218815053
 10
17.53693610672696
 20
-247.5994116047665
 10
16.04419221821105
 20
-243.0640652170118
 10
15.47600832946422
 20
-238.2754596626532
 97
        1
330
97
 75
     2
 76
     1
 98
        1
 10
0.0
 20
0.0
450
        0
451
        0
460
0.0
461
0.0
452
        0
462
0.0
453
        0
470

  0
SPLINE
  5
99
330
7A
100
AcDbEntity
  8
Livello 1
100
AcDbSpline
210
0.0
220
0.0
230
1.0
 70
     9
 71
     3
 72
    56
 73
    52
 74
     0
 42
0.0000000001
 43
0.0000000001
 40
0.0
 40
0.0
 40
0.0
 40
0.0
 40
1.0
 40
1.0
 40
1.0
 40
2.0
 40
2.0
 40
2.0
 40
3.0
 40
3.0
 40
3.0
 40
4.0
 40
4.0
 40
4.0
 40
5.0
 40
5.0
 40
5.0
 40
6.0
 40
6.0
 40
6.0
 40
7.0
 40
7.0
 40
7.0
 40
8.0
 40
8.0
 40
8.0
 40
9.0
 40
9.0
 40
9.0
 40
10.0
 40
10.0
 40
10.0
 40
11.0
 40
11.0
 40
11.0
 40
12.0
 40
12.0
 40
12.0
 40
13.0
 40
13.0
 40
13.0
 40
14.0
 40
14.0
 40
14.0
 40
15.0
 40
15.0
 40
15.0
 40
16.0
 40
16.0
 40
16.0
 40
17.0
 40
17.0
 40
17.0
 40
17.0
 10
58.97509432875333
 20
-64.7390260949264
 30
0.0
 10
65.23114944692584
 20
-57.19995331903332
 30
0.0
 10
73.1820547996369
 20
-49.31889776544798
 30
0.0
 10
81.96809096437533
 20
-41.94788832284638
 30
0.0
 10
91.05063684377141
 20
-34.32806471364013
 30
0.0
 10
100.4018229940916
 20
-27.7959961041621
 30
0.0
 10
109.0108352744574
 20
-23.05759082756889
 30
0.0
 10
119.8860213858972
 20
-17.07183388462097
 30
0.0
 10
125.8777048441477
 20
-15.99596749600088
 30
0.0
 10
127.4550095261296
 20
-15.80881888493661
 30
0.0
 10
130.919639993295
 20
-15.39772694059506
 30
0.0
 10
140.9844250142987
 20
-15.11381138511052
 30
0.0
 10
159.5681581512993
 20
-21.34058610577611
 30
0.0
 10
173.9161944519171
 20
-26.14806527124076
 30
0.0
 10
189.7687926585947
 20
-33.61806415826207
 30
0.0
 10
205.4120878150566
 20
-42.94300387815298
 30
0.0
 10
220.2937357687275
 20
-51.81405970926867
 30
0.0
 10
234.3551048544365
 20
-62.05840887337424
 30
0.0
 10
245.0062065271487
 20
-71.78897248205268
 30
0.0
 10
250.9022872100605
 20
-77.17539525848398
 30
0.0
 10
254.7272096124786
 20
-81.42767275742071
 30
0.0
 10
257.1717831612235
 20
-84.52393275664686
 30
0.0
 10
256.0286773570531
 20
-85.54783497861308
 30
0.0
 10
254.7533151673681
 20
-86.5397049783651
 30
0.0
 10
253.3246710371492
 20
-87.52257914478615
 30
0.0
 10
247.8793054935856
 20
-91.26833831051612
 30
0.0
 10
241.1552844031717
 20
-94.23459969866348
 30
0.0
 10
234.0365465292303
 20
-97.3749569201008
 30
0.0
 10
225.7040767418093
 20
-101.0508308080706
 30
0.0
 10
217.0878325171835
 20
-104.8518349737872
 30
0.0
 10
209.2065302182523
 20
-110.5550169168056
 30
0.0
 10
197.0136485848742
 20
-119.3782360812667
 30
0.0
 10
191.020412904441
 20
-129.7377319120101
 30
0.0
 10
188.1682751994274
 20
-138.772264965307
 30
0.0
 10
183.5282950400253
 20
-137.6269719100377
 30
0.0
 10
178.6119840543397
 20
-137.282907743457
 30
0.0
 10
173.5928383490555
 20
-137.8784319099749
 30
0.0
 10
173.5928383490555
 20
-137.8784319099749
 30
0.0
 10
90.66339268698415
 20
-147.718356629737
 30
0.0
 10
90.66339268698415
 20
-147.718356629737
 30
0.0
 10
95.14218868383165
 20
-141.1981766313671
 30
0.0
 10
98.2003486058115
 20
-133.6118669110414
 30
0.0
 10
99.01223136287642
 20
-124.7737605243622
 30
0.0
 10
100.7278249302191
 20
-106.1003155290305
 30
0.0
 10
91.89913793323544
 20
-89.11540608883226
 30
0.0
 10
72.77163314344097
 20
-74.29090775920492
 30
0.0
 10
68.52327158515904
 20
-70.99825637113929
 30
0.0
 10
63.83291476037555
 20
-67.84459942748345
 30
0.0
 10
58.91244099701841
 20
-64.81473220601867
 30
0.0
 10
58.93311377426879
 20
-64.78986137269131
 30
0.0
 10
58.95442155150296
 20
-64.76407331714233
 30
0.0
 10
58.97509432875333
 20
-64.7390260949264
 30
0.0
  0
SPLINE
  5
9A
330
7A
100
AcDbEntity
  8
Livello 1
100
AcDbSpline
210
0.0
220
0.0
230
1.0
 70
     9
 71
     3
 72
    77
 73
    73
 74
     0
 42
0.0000000001
 43
0.0000000001
 40
0.0
 40
0.0
 40
0.0
 40
0.0
 40
1.0
 40
1.0
 40
1.0
 40
2.0
 40
2.0
 40
2.0
 40
3.0
 40
3.0
 40
3.0
 40
4.0
 40
4.0
 40
4.0
 40
5.0
 40
5.0
 40
5.0
 40
6.0
 40
6.0
 40
6.0
 40
7.0
 40
7.0
 40
7.0
 40
8.0
 40
8.0
 40
8.0
 40
9.0
 40
9.0
 40
9.0
 40
10.0
 40
10.0
 40
10.0
 40
11.0
 40
11.0
 40
11.0
 40
12.0
 40
12.0
 40
12.0
 40
13.0
 40
13.0
 40
13.0
 40
14.0
 40
14.0
 40
14.0
 40
15.0
 40
15.0
 40
15.0
 40
16.0
 40
16.0
 40
16.0
 40
17.0
 40
17.0
 40
17.0
 40
18.0
 40
18.0
 40
18.0
 40
19.0
 40
19.0
 40
19.0
 40
20.0
 40
20.0
 40
20.0
 40
21.0
 40
21.0
 40
21.0
 40
22.0
 40
22.0
 40
22.0
 40
23.0
 40
23.0
 40
23.0
 40
24.0
 40
24.0
 40
24.0
 40
24.0
 10
89.12976189277699
 20
-100.4687474748829
 30
0.0
 10
93.03956262636301
 20
-107.9907105285577
 30
0.0
 10
94.63584675230507
 20
-116.0093141376643
 30
0.0
 10
93.87391732729907
 20
-124.3016380244801
 30
0.0
 10
93.19640762236156
 20
-131.6778333004139
 30
0.0
 10
90.68515907531773
 20
-138.5732630209121
 30
0.0
 10
86.41019807326996
 20
-144.7968627415785
 30
0.0
 10
86.41019807326996
 20
-144.7968627415785
 30
0.0
 10
79.96205545999801
 20
-154.1843852392317
 30
0.0
 10
79.96205545999801
 20
-154.1843852392317
 30
0.0
 10
79.96205545999801
 20
-154.1843852392317
 30
0.0
 10
174.2008508335438
 20
-143.002529130916
 30
0.0
 10
174.2008508335438
 20
-143.002529130916
 30
0.0
 10
178.4907388442664
 20
-142.4935413532656
 30
0.0
 10
182.7740561703787
 20
-142.7557610754222
 30
0.0
 10
186.931965508746
 20
-143.7818505196101
 30
0.0
 10
186.931965508746
 20
-143.7818505196101
 30
0.0
 10
191.6316003888483
 20
-144.9414663526537
 30
0.0
 10
191.6316003888483
 20
-144.9414663526537
 30
0.0
 10
191.6316003888483
 20
-144.9414663526537
 30
0.0
 10
193.0887842405614
 20
-140.3254749649187
 30
0.0
 10
193.0887842405614
 20
-140.3254749649187
 30
0.0
 10
196.2757786036988
 20
-130.2306330229978
 30
0.0
 10
202.7162659393883
 20
-121.620703302928
 30
0.0
 10
212.2315995855208
 20
-114.7352571935384
 30
0.0
 10
219.6711943895269
 20
-109.3518330282178
 30
0.0
 10
228.0327627935107
 20
-105.6630474735844
 30
0.0
 10
236.1190642538786
 20
-102.0959349744761
 30
0.0
 10
243.465349939134
 20
-98.85524775306409
 30
0.0
 10
250.4041650005464
 20
-95.79426553160706
 30
0.0
 10
256.248916518101
 20
-91.77383358816777
 30
0.0
 10
257.8816425875579
 20
-90.65051858844839
 30
0.0
 10
259.3094400511317
 20
-89.53644636650489
 30
0.0
 10
260.6145832681797
 20
-88.36748192235253
 30
0.0
 10
260.6145832681797
 20
-88.36748192235253
 30
0.0
 10
264.226386036801
 20
-85.13222747871695
 30
0.0
 10
264.226386036801
 20
-85.13222747871695
 30
0.0
 10
264.226386036801
 20
-85.13222747871695
 30
0.0
 10
261.2216013912373
 20
-81.32656664633508
 30
0.0
 10
261.2216013912373
 20
-81.32656664633508
 30
0.0
 10
258.0023984178104
 20
-77.24884359179895
 30
0.0
 10
253.7174538049063
 20
-72.75819414847711
 30
0.0
 10
248.4863944939172
 20
-67.97936053856073
 30
0.0
 10
237.5860200497867
 20
-58.02083192993922
 30
0.0
 10
223.22684161086
 20
-47.55543221033351
 30
0.0
 10
208.0541463587632
 20
-38.51088026815015
 30
0.0
 10
192.0989250991481
 20
-28.99999138163897
 30
0.0
 10
175.8994757902083
 20
-21.37060749465725
 30
0.0
 10
161.207551720586
 20
-16.4479463847769
 30
0.0
 10
142.3373666310825
 20
-10.12525138635762
 30
0.0
 10
131.5798988653393
 20
-10.12324055302489
 30
0.0
 10
126.8469970416413
 20
-10.6847922195509
 30
0.0
 10
124.5250843231004
 20
-10.96031166392645
 30
0.0
 10
117.8964958810987
 20
-12.27698416359748
 30
0.0
 10
106.522834782376
 20
-18.5371316620323
 30
0.0
 10
97.6243683427282
 20
-23.4349219385856
 30
0.0
 10
87.9866583113367
 20
-30.16334665912594
 30
0.0
 10
78.65169771565025
 20
-37.99501332383463
 30
0.0
 10
69.63166405688159
 20
-45.562273044165
 30
0.0
 10
61.45455759883028
 20
-53.67097609769349
 30
0.0
 10
55.00426304116878
 20
-61.44408165130563
 30
0.0
 10
55.00426304116878
 20
-61.44408165130563
 30
0.0
 10
51.13393813990899
 20
-66.08462637236778
 30
0.0
 10
51.13393813990899
 20
-66.08462637236778
 30
0.0
 10
51.13393813990899
 20
-66.08462637236778
 30
0.0
 10
56.20684717715498
 20
-69.20847359380889
 30
0.0
 10
56.20684717715498
 20
-69.20847359380889
 30
0.0
 10
61.39303315595546
 20
-72.40192387078841
 30
0.0
 10
65.77749637743181
 20
-75.39852414781712
 30
0.0
 10
69.61077961296995
 20
-78.3692658137409
 30
0.0
 10
78.53581021860678
 20
-85.28663831201184
 30
0.0
 10
85.10294477328745
 20
-92.7218885879307
 30
0.0
 10
89.12976189277699
 20
-100.4687474748829
 30
0.0
  0
HATCH
  5
9B
330
7A
100
AcDbEntity
  8
Livello 1
 62
   250
440
 33554687
100
AcDbHatch
 10
0.0
 20
0.0
 30
0.0
210
0.0
220
0.0
230
1.0
  2
SOLID
 70
     1
 71
     1
 91
        2
 92
        1
 93
        1
 72
     4
 94
        3
 73
     0
 74
     0
 95
       56
 96
       52
 40
0.0
 40
0.0
 40
0.0
 40
0.0
 40
1.0
 40
1.0
 40
1.0
 40
2.0
 40
2.0
 40
2.0
 40
3.0
 40
3.0
 40
3.0
 40
4.0
 40
4.0
 40
4.0
 40
5.0
 40
5.0
 40
5.0
 40
6.0
 40
6.0
 40
6.0
 40
7.0
 40
7.0
 40
7.0
 40
8.0
 40
8.0
 40
8.0
 40
9.0
 40
9.0
 40
9.0
 40
10.0
 40
10.0
 40
10.0
 40
11.0
 40
11.0
 40
11.0
 40
12.0
 40
12.0
 40
12.0
 40
13.0
 40
13.0
 40
13.0
 40
14.0
 40
14.0
 40
14.0
 40
15.0
 40
15.0
 40
15.0
 40
16.0
 40
16.0
 40
16.0
 40
17.0
 40
17.0
 40
17.0
 40
17.0
 10
58.97509432875333
 20
-64.7390260949264
 10
65.23114944692584
 20
-57.19995331903332
 10
73.1820547996369
 20
-49.31889776544798
 10
81.96809096437533
 20
-41.94788832284638
 10
91.05063684377141
 20
-34.32806471364013
 10
100.4018229940916
 20
-27.7959961041621
 10
109.0108352744574
 20
-23.05759082756889
 10
119.8860213858972
 20
-17.07183388462097
 10
125.8777048441477
 20
-15.99596749600088
 10
127.4550095261296
 20
-15.80881888493661
 10
130.919639993295
 20
-15.39772694059506
 10
140.9844250142987
 20
-15.11381138511052
 10
159.5681581512993
 20
-21.34058610577611
 10
173.9161944519171
 20
-26.14806527124076
 10
189.7687926585947
 20
-33.61806415826207
 10
205.4120878150566
 20
-42.94300387815298
 10
220.2937357687275
 20
-51.81405970926867
 10
234.3551048544365
 20
-62.05840887337424
 10
245.0062065271487
 20
-71.78897248205268
 10
250.9022872100605
 20
-77.17539525848398
 10
254.7272096124786
 20
-81.42767275742071
 10
257.1717831612235
 20
-84.52393275664686
 10
256.0286773570531
 20
-85.54783497861308
 10
254.7533151673681
 20
-86.5397049783651
 10
253.3246710371492
 20
-87.52257914478615
 10
247.8793054935856
 20
-91.26833831051612
 10
241.1552844031717
 20
-94.23459969866348
 10
234.0365465292303
 20
-97.3749569201008
 10
225.7040767418093
 20
-101.0508308080706
 10
217.0878325171835
 20
-104.8518349737872
 10
209.2065302182523
 20
-110.5550169168056
 10
197.0136485848742
 20
-119.3782360812667
 10
191.020412904441
 20
-129.7377319120101
 10
188.1682751994274
 20
-138.772264965307
 10
183.5282950400253
 20
-137.6269719100377
 10
178.6119840543397
 20
-137.282907743457
 10
173.5928383490555
 20
-137.8784319099749
 10
173.5928383490555
 20
-137.8784319099749
 10
90.66339268698415
 20
-147.718356629737
 10
90.66339268698415
 20
-147.718356629737
 10
95.14218868383165
 20
-141.1981766313671
 10
98.2003486058115
 20
-133.6118669110414
 10
99.01223136287642
 20
-124.7737605243622
 10
100.7278249302191
 20
-106.1003155290305
 10
91.89913793323544
 20
-89.11540608883226
 10
72.77163314344097
 20
-74.29090775920492
 10
68.52327158515904
 20
-70.99825637113929
 10
63.83291476037555
 20
-67.84459942748345
 10
58.91244099701841
 20
-64.81473220601867
 10
58.93311377426879
 20
-64.78986137269131
 10
58.95442155150296
 20
-64.76407331714233
 10
58.97509432875333
 20
-64.7390260949264
 97
        1
330
99
 92
        1
 93
        1
 72
     4
 94
        3
 73
     0
 74
     0
 95
       77
 96
       73
 40
0.0
 40
0.0
 40
0.0
 40
0.0
 40
1.0
 40
1.0
 40
1.0
 40
2.0
 40
2.0
 40
2.0
 40
3.0
 40
3.0
 40
3.0
 40
4.0
 40
4.0
 40
4.0
 40
5.0
 40
5.0
 40
5.0
 40
6.0
 40
6.0
 40
6.0
 40
7.0
 40
7.0
 40
7.0
 40
8.0
 40
8.0
 40
8.0
 40
9.0
 40
9.0
 40
9.0
 40
10.0
 40
10.0
 40
10.0
 40
11.0
 40
11.0
 40
11.0
 40
12.0
 40
12.0
 40
12.0
 40
13.0
 40
13.0
 40
13.0
 40
14.0
 40
14.0
 40
14.0
 40
15.0
 40
15.0
 40
15.0
 40
16.0
 40
16.0
 40
16.0
 40
17.0
 40
17.0
 40
17.0
 40
18.0
 40
18.0
 40
18.0
 40
19.0
 40
19.0
 40
19.0
 40
20.0
 40
20.0
 40
20.0
 40
21.0
 40
21.0
 40
21.0
 40
22.0
 40
22.0
 40
22.0
 40
23.0
 40
23.0
 40
23.0
 40
24.0
 40
24.0
 40
24.0
 40
24.0
 10
89.12976189277699
 20
-100.4687474748829
 10
93.03956262636301
 20
-107.9907105285577
 10
94.63584675230507
 20
-116.0093141376643
 10
93.87391732729907
 20
-124.3016380244801
 10
93.19640762236156
 20
-131.6778333004139
 10
90.68515907531773
 20
-138.5732630209121
 10
86.41019807326996
 20
-144.7968627415785
 10
86.41019807326996
 20
-144.7968627415785
 10
79.96205545999801
 20
-154.1843852392317
 10
79.96205545999801
 20
-154.1843852392317
 10
79.96205545999801
 20
-154.1843852392317
 10
174.2008508335438
 20
-143.002529130916
 10
174.2008508335438
 20
-143.002529130916
 10
178.4907388442664
 20
-142.4935413532656
 10
182.7740561703787
 20
-142.7557610754222
 10
186.931965508746
 20
-143.7818505196101
 10
186.931965508746
 20
-143.7818505196101
 10
191.6316003888483
 20
-144.9414663526537
 10
191.6316003888483
 20
-144.9414663526537
 10
191.6316003888483
 20
-144.9414663526537
 10
193.0887842405614
 20
-140.3254749649187
 10
193.0887842405614
 20
-140.3254749649187
 10
196.2757786036988
 20
-130.2306330229978
 10
202.7162659393883
 20
-121.620703302928
 10
212.2315995855208
 20
-114.7352571935384
 10
219.6711943895269
 20
-109.3518330282178
 10
228.0327627935107
 20
-105.6630474735844
 10
236.1190642538786
 20
-102.0959349744761
 10
243.465349939134
 20
-98.85524775306409
 10
250.4041650005464
 20
-95.79426553160706
 10
256.248916518101
 20
-91.77383358816777
 10
257.8816425875579
 20
-90.65051858844839
 10
259.3094400511317
 20
-89.53644636650489
 10
260.6145832681797
 20
-88.36748192235253
 10
260.6145832681797
 20
-88.36748192235253
 10
264.226386036801
 20
-85.13222747871695
 10
264.226386036801
 20
-85.13222747871695
 10
264.226386036801
 20
-85.13222747871695
 10
261.2216013912373
 20
-81.32656664633508
 10
261.2216013912373
 20
-81.32656664633508
 10
258.0023984178104
 20
-77.24884359179895
 10
253.7174538049063
 20
-72.75819414847711
 10
248.4863944939172
 20
-67.97936053856073
 10
237.5860200497867
 20
-58.02083192993922
 10
223.22684161086
 20
-47.55543221033351
 10
208.0541463587632
 20
-38.51088026815015
 10
192.0989250991481
 20
-28.99999138163897
 10
175.8994757902083
 20
-21.37060749465725
 10
161.207551720586
 20
-16.4479463847769
 10
142.3373666310825
 20
-10.12525138635762
 10
131.5798988653393
 20
-10.12324055302489
 10
126.8469970416413
 20
-10.6847922195509
 10
124.5250843231004
 20
-10.96031166392645
 10
117.8964958810987
 20
-12.27698416359748
 10
106.522834782376
 20
-18.5371316620323
 10
97.6243683427282
 20
-23.4349219385856
 10
87.9866583113367
 20
-30.16334665912594
 10
78.65169771565025
 20
-37.99501332383463
 10
69.63166405688159
 20
-45.562273044165
 10
61.45455759883028
 20
-53.67097609769349
 10
55.00426304116878
 20
-61.44408165130563
 10
55.00426304116878
 20
-61.44408165130563
 10
51.13393813990899
 20
-66.08462637236778
 10
51.13393813990899
 20
-66.08462637236778
 10
51.13393813990899
 20
-66.08462637236778
 10
56.20684717715498
 20
-69.20847359380889
 10
56.20684717715498
 20
-69.20847359380889
 10
61.39303315595546
 20
-72.40192387078841
 10
65.77749637743181
 20
-75.39852414781712
 10
69.61077961296995
 20
-78.3692658137409
 10
78.53581021860678
 20
-85.28663831201184
 10
85.10294477328745
 20
-92.7218885879307
 10
89.12976189277699
 20
-100.4687474748829
 97
        1
330
9A
 75
     2
 76
     1
 98
        1
 10
0.0
 20
0.0
450
        0
451
        0
460
0.0
461
0.0
452
        0
462
0.0
453
        0
470

  0
SPLINE
  5
9C
330
7A
100
AcDbEntity
  8
Livello 1
100
AcDbSpline
210
0.0
220
0.0
230
1.0
 70
     9
 71
     3
 72
    77
 73
    73
 74
     0
 42
0.0000000001
 43
0.0000000001
 40
0.0
 40
0.0
 40
0.0
 40
0.0
 40
1.0
 40
1.0
 40
1.0
 40
2.0
 40
2.0
 40
2.0
 40
3.0
 40
3.0
 40
3.0
 40
4.0
 40
4.0
 40
4.0
 40
5.0
 40
5.0
 40
5.0
 40
6.0
 40
6.0
 40
6.0
 40
7.0
 40
7.0
 40
7.0
 40
8.0
 40
8.0
 40
8.0
 40
9.0
 40
9.0
 40
9.0
 40
10.0
 40
10.0
 40
10.0
 40
11.0
 40
11.0
 40
11.0
 40
12.0
 40
12.0
 40
12.0
 40
13.0
 40
13.0
 40
13.0
 40
14.0
 40
14.0
 40
14.0
 40
15.0
 40
15.0
 40
15.0
 40
16.0
 40
16.0
 40
16.0
 40
17.0
 40
17.0
 40
17.0
 40
18.0
 40
18.0
 40
18.0
 40
19.0
 40
19.0
 40
19.0
 40
20.0
 40
20.0
 40
20.0
 40
21.0
 40
21.0
 40
21.0
 40
22.0
 40
22.0
 40
22.0
 40
23.0
 40
23.0
 40
23.0
 40
24.0
 40
24.0
 40
24.0
 40
24.0
 10
-65.9587905390658
 20
-200.9769355053111
 30
0.0
 10
-67.21852470541744
 20
-206.6409238372288
 30
0.0
 10
-68.80292026057704
 20
-212.456359669108
 30
0.0
 10
-70.79428026007921
 20
-219.4458399451385
 30
0.0
 10
-71.13837970443771
 20
-220.6537157781698
 30
0.0
 10
-71.48392553768447
 20
-221.8606743889792
 30
0.0
 10
-71.82940081537587
 20
-223.0676329997885
 30
0.0
 10
-72.60117275962752
 20
-225.7634549435591
 30
0.0
 10
-73.39912081498342
 20
-228.5512107761953
 30
0.0
 10
-74.18165248145453
 20
-231.3494793866069
 30
0.0
 10
-74.41572053695178
 20
-232.186726886398
 30
0.0
 10
-74.61913220356738
 20
-233.0288779972983
 30
0.0
 10
-74.79209914796872
 20
-233.8741335526428
 30
0.0
 10
-78.03963025826803
 20
-232.9713752195347
 30
0.0
 10
-81.17903497970528
 20
-232.0562343864307
 30
0.0
 10
-84.21123053450269
 20
-231.123807442219
 30
0.0
 10
-83.940014979015
 20
-229.8697882758656
 30
0.0
 10
-83.73106470128936
 20
-228.5918507761853
 30
0.0
 10
-83.5873077568811
 20
-227.2920763320657
 30
0.0
 10
-83.49526803468181
 20
-226.4598382767184
 30
0.0
 10
-83.17886164587212
 20
-225.0391668881849
 30
0.0
 10
-82.64666109044958
 20
-223.0671743886776
 30
0.0
 10
-82.56566331269183
 20
-222.7668899443085
 30
0.0
 10
-82.48149053493522
 20
-222.4633246666063
 30
0.0
 10
-82.39583609051219
 20
-222.1603591111266
 30
0.0
 10
-82.39583609051219
 20
-222.1603591111266
 30
0.0
 10
-82.36503859051984
 20
-222.0524443889315
 30
0.0
 10
-82.36503859051984
 20
-222.0524443889315
 30
0.0
 10
-82.3223877571972
 20
-221.9069941111901
 30
0.0
 10
-82.27984275720777
 20
-221.7616496667819
 30
0.0
 10
-82.23659220166315
 20
-221.6164463334851
 30
0.0
 10
-82.03346275726929
 20
-220.935091333655
 30
0.0
 10
-81.81583414621259
 20
-220.2336632782751
 30
0.0
 10
-81.58769275738098
 20
-219.5254618895634
 30
0.0
 10
-81.11274803527743
 20
-218.0511330010429
 30
0.0
 10
-80.58696803540867
 20
-216.5290027236453
 30
0.0
 10
-80.02425220221617
 20
-215.0002049462498
 30
0.0
 10
-78.86357803583962
 20
-211.8465480025943
 30
0.0
 10
-77.61654386948484
 20
-208.8371066144573
 30
0.0
 10
-76.31810998092034
 20
-206.0568649484859
 30
0.0
 10
-75.69743275885333
 20
-204.7277393932623
 30
0.0
 10
-75.10720025900089
 20
-203.5400424491152
 30
0.0
 10
-74.51333414803828
 20
-202.4253352271712
 30
0.0
 10
-74.23993137032899
 20
-201.9122905050775
 30
0.0
 10
-73.96945664817433
 20
-201.4231993940888
 30
0.0
 10
-73.71129387046093
 20
-200.9748188386451
 30
0.0
 10
-73.7119641482386
 20
-200.9759830053116
 30
0.0
 10
-73.71266970379413
 20
-200.9771471719781
 30
0.0
 10
-73.71330470379398
 20
-200.9783113386446
 30
0.0
 10
-73.71330470379398
 20
-200.9783113386446
 30
0.0
 10
-73.70469692601827
 20
-200.9632124497591
 30
0.0
 10
-73.70469692601827
 20
-200.9632124497591
 30
0.0
 10
-73.70684887046204
 20
-200.9670224497582
 30
0.0
 10
-73.70910664823933
 20
-200.9710441164236
 30
0.0
 10
-73.71129387046093
 20
-200.9748188386451
 30
0.0
 10
-73.6876224815782
 20
-200.9337202275443
 30
0.0
 10
-73.66380998158412
 20
-200.8925157831102
 30
0.0
 10
-73.63992692603435
 20
-200.8513466164536
 30
0.0
 10
-73.58214192604903
 20
-200.7566610609222
 30
0.0
 10
-73.52453331495226
 20
-200.6613052276126
 30
0.0
 10
-73.46766553718854
 20
-200.5661963387476
 30
0.0
 10
-73.44840387052688
 20
-200.5345168943105
 30
0.0
 10
-73.42910692608704
 20
-200.5029080054298
 30
0.0
 10
-73.40980998164752
 20
-200.4712285609933
 30
0.0
 10
-70.8994785933863
 20
-198.1396143949096
 30
0.0
 10
-68.72978942726198
 20
-195.4729318955761
 30
0.0
 10
-66.95436470548369
 20
-192.5627974518591
 30
0.0
 10
-66.10018387236391
 20
-192.6611871740571
 30
0.0
 10
-65.23630165035761
 20
-192.7562960629221
 30
0.0
 10
-64.37898109501647
 20
-192.8465013406772
 30
0.0
 10
-64.8182247060178
 20
-195.5049993955684
 30
0.0
 10
-65.34559220588585
 20
-198.2204005060003
 30
0.0
 10
-65.9587905390658
 20
-200.9769355053111
 30
0.0
  0
SPLINE
  5
9D
330
7A
100
AcDbEntity
  8
Livello 1
100
AcDbSpline
210
0.0
220
0.0
230
1.0
 70
     9
 71
     3
 72
   101
 73
    97
 74
     0
 42
0.0000000001
 43
0.0000000001
 40
0.0
 40
0.0
 40
0.0
 40
0.0
 40
1.0
 40
1.0
 40
1.0
 40
2.0
 40
2.0
 40
2.0
 40
3.0
 40
3.0
 40
3.0
 40
4.0
 40
4.0
 40
4.0
 40
5.0
 40
5.0
 40
5.0
 40
6.0
 40
6.0
 40
6.0
 40
7.0
 40
7.0
 40
7.0
 40
8.0
 40
8.0
 40
8.0
 40
9.0
 40
9.0
 40
9.0
 40
10.0
 40
10.0
 40
10.0
 40
11.0
 40
11.0
 40
11.0
 40
12.0
 40
12.0
 40
12.0
 40
13.0
 40
13.0
 40
13.0
 40
14.0
 40
14.0
 40
14.0
 40
15.0
 40
15.0
 40
15.0
 40
16.0
 40
16.0
 40
16.0
 40
17.0
 40
17.0
 40
17.0
 40
18.0
 40
18.0
 40
18.0
 40
19.0
 40
19.0
 40
19.0
 40
20.0
 40
20.0
 40
20.0
 40
21.0
 40
21.0
 40
21.0
 40
22.0
 40
22.0
 40
22.0
 40
23.0
 40
23.0
 40
23.0
 40
24.0
 40
24.0
 40
24.0
 40
25.0
 40
25.0
 40
25.0
 40
26.0
 40
26.0
 40
26.0
 40
27.0
 40
27.0
 40
27.0
 40
28.0
 40
28.0
 40
28.0
 40
29.0
 40
29.0
 40
29.0
 40
30.0
 40
30.0
 40
30.0
 40
31.0
 40
31.0
 40
31.0
 40
32.0
 40
32.0
 40
32.0
 40
32.0
 10
-66.36490831674215
 20
-187.4367952309185
 30
0.0
 10
-66.36490831674215
 20
-187.4367952309185
 30
0.0
 10
-69.64129664925643
 20
-187.0600991199019
 30
0.0
 10
-69.64129664925643
 20
-187.0600991199019
 30
0.0
 10
-69.64129664925643
 20
-187.0600991199019
 30
0.0
 10
-71.3590774821601
 20
-189.8753010636422
 30
0.0
 10
-71.3590774821601
 20
-189.8753010636422
 30
0.0
 10
-72.8997638706641
 20
-192.400484396344
 30
0.0
 10
-74.77121470352928
 20
-194.6933635624374
 30
0.0
 10
-76.92135998076955
 20
-196.6904738397164
 30
0.0
 10
-76.92135998076955
 20
-196.6904738397164
 30
0.0
 10
-77.44798664730454
 20
-197.1795296729275
 30
0.0
 10
-77.44798664730454
 20
-197.1795296729275
 30
0.0
 10
-77.44798664730454
 20
-197.1795296729275
 30
0.0
 10
-77.89862498052521
 20
-197.9218446727418
 30
0.0
 10
-77.89862498052521
 20
-197.9218446727418
 30
0.0
 10
-77.94649692495794
 20
-198.002136894944
 30
0.0
 10
-78.07550775825879
 20
-198.2141916171132
 30
0.0
 10
-78.07550775825879
 20
-198.2141916171132
 30
0.0
 10
-78.07550775825879
 20
-198.2141916171132
 30
0.0
 10
-78.18246998045438
 20
-198.3996116170665
 30
0.0
 10
-78.18246998045438
 20
-198.3996116170665
 30
0.0
 10
-78.18246998045438
 20
-198.3996116170665
 30
0.0
 10
-78.18472775823167
 20
-198.4033157837323
 30
0.0
 10
-78.18472775823167
 20
-198.4033157837323
 30
0.0
 10
-78.47030136927116
 20
-198.899215505831
 30
0.0
 10
-78.76719914697495
 20
-199.436037450141
 30
0.0
 10
-79.06709553578875
 20
-199.9989649500002
 30
0.0
 10
-79.70251886896318
 20
-201.1916007830353
 30
0.0
 10
-80.33257997991681
 20
-202.4589196716078
 30
0.0
 10
-80.99319164641853
 20
-203.8734527268093
 30
0.0
 10
-82.35314997941172
 20
-206.7853157816369
 30
0.0
 10
-83.65634636797471
 20
-209.9292360586291
 30
0.0
 10
-84.86662108989433
 20
-213.2180774466953
 30
0.0
 10
-85.45307886752553
 20
-214.811221890742
 30
0.0
 10
-86.00224803405494
 20
-216.4009796681217
 30
0.0
 10
-86.49910025615303
 20
-217.9434299455142
 30
0.0
 10
-86.73845997831541
 20
-218.6864152231059
 30
0.0
 10
-86.96797720048024
 20
-219.4262960562547
 30
0.0
 10
-87.18147831153798
 20
-220.1424702227424
 30
0.0
 10
-87.18147831153798
 20
-220.1424702227424
 30
0.0
 10
-87.32826914483473
 20
-220.6412627226175
 30
0.0
 10
-87.32826914483473
 20
-220.6412627226175
 30
0.0
 10
-87.32826914483473
 20
-220.6412627226175
 30
0.0
 10
-87.35903136704925
 20
-220.7494243892571
 30
0.0
 10
-87.35903136704925
 20
-220.7494243892571
 30
0.0
 10
-87.45227053369253
 20
-221.0789541113971
 30
0.0
 10
-87.54222886700341
 20
-221.4034038335383
 30
0.0
 10
-87.62887108920406
 20
-221.7242905001244
 30
0.0
 10
-88.2460205334941
 20
-224.0112077217747
 30
0.0
 10
-88.59156636674086
 20
-225.6006127213773
 30
0.0
 10
-88.7159910889321
 20
-226.7247391099858
 30
0.0
 10
-88.83882831112375
 20
-227.8357421652632
 30
0.0
 10
-89.01997969996735
 20
-228.9486502205409
 30
0.0
 10
-89.25450636657522
 20
-230.0326657758255
 30
0.0
 10
-89.25450636657522
 20
-230.0326657758255
 30
0.0
 10
-90.25621886632482
 20
-234.6631563302233
 30
0.0
 10
-90.25621886632482
 20
-234.6631563302233
 30
0.0
 10
-90.25621886632482
 20
-234.6631563302233
 30
0.0
 10
-85.72806914523477
 20
-236.055746607653
 30
0.0
 10
-85.72806914523477
 20
-236.055746607653
 30
0.0
 10
-82.71961553487576
 20
-236.9808710518656
 30
0.0
 10
-79.50517498012359
 20
-237.9195068849644
 30
0.0
 10
-76.17400025873431
 20
-238.8455485513996
 30
0.0
 10
-76.17400025873431
 20
-238.8455485513996
 30
0.0
 10
-70.84546831562187
 20
-240.3268624399183
 30
0.0
 10
-70.84546831562187
 20
-240.3268624399183
 30
0.0
 10
-70.84546831562187
 20
-240.3268624399183
 30
0.0
 10
-69.73689942701021
 20
-234.9084074412732
 30
0.0
 10
-69.73689942701021
 20
-234.9084074412732
 30
0.0
 10
-69.58852109371385
 20
-234.1834843858985
 30
0.0
 10
-69.41195581598049
 20
-233.4533402194143
 30
0.0
 10
-69.21217776047474
 20
-232.7384713307046
 30
0.0
 10
-68.43299748289171
 20
-229.95226772029
 30
0.0
 10
-67.63769526086838
 20
-227.1741427209846
 30
0.0
 10
-66.86874553883851
 20
-224.4874577216558
 30
0.0
 10
-66.86874553883851
 20
-224.4874577216558
 30
0.0
 10
-66.84676748328827
 20
-224.4105521661198
 30
0.0
 10
-66.84676748328827
 20
-224.4105521661198
 30
0.0
 10
-66.50803026115089
 20
-223.2271591108597
 30
0.0
 10
-66.16925776123536
 20
-222.0439777222665
 30
0.0
 10
-65.83186109465303
 20
-220.8595616114519
 30
0.0
 10
-63.81594776182374
 20
-213.7838977243317
 30
0.0
 10
-62.20936248444782
 20
-207.8854885591396
 30
0.0
 10
-60.92186470699169
 20
-202.097287171698
 30
0.0
 10
-60.29095692937183
 20
-199.2606716168513
 30
0.0
 10
-59.74136442950898
 20
-196.4311468953368
 30
0.0
 10
-59.28808026295576
 20
-193.6875941182449
 30
0.0
 10
-59.28808026295576
 20
-193.6875941182449
 30
0.0
 10
-58.39604637429
 20
-188.2876246751502
 30
0.0
 10
-58.39604637429
 20
-188.2876246751502
 30
0.0
 10
-58.39604637429
 20
-188.2876246751502
 30
0.0
 10
-63.83901942848478
 20
-187.7147488419605
 30
0.0
 10
-63.83901942848478
 20
-187.7147488419605
 30
0.0
 10
-64.68145276160747
 20
-187.6262368975379
 30
0.0
 10
-65.53129442806156
 20
-187.532609675339
 30
0.0
 10
-66.36490831674215
 20
-187.4367952309185
 30
0.0
  0
HATCH
  5
9E
330
7A
100
AcDbEntity
  8
Livello 1
 62
   250
440
 33554687
100
AcDbHatch
 10
0.0
 20
0.0
 30
0.0
210
0.0
220
0.0
230
1.0
  2
SOLID
 70
     1
 71
     1
 91
        2
 92
        1
 93
        1
 72
     4
 94
        3
 73
     0
 74
     0
 95
       77
 96
       73
 40
0.0
 40
0.0
 40
0.0
 40
0.0
 40
1.0
 40
1.0
 40
1.0
 40
2.0
 40
2.0
 40
2.0
 40
3.0
 40
3.0
 40
3.0
 40
4.0
 40
4.0
 40
4.0
 40
5.0
 40
5.0
 40
5.0
 40
6.0
 40
6.0
 40
6.0
 40
7.0
 40
7.0
 40
7.0
 40
8.0
 40
8.0
 40
8.0
 40
9.0
 40
9.0
 40
9.0
 40
10.0
 40
10.0
 40
10.0
 40
11.0
 40
11.0
 40
11.0
 40
12.0
 40
12.0
 40
12.0
 40
13.0
 40
13.0
 40
13.0
 40
14.0
 40
14.0
 40
14.0
 40
15.0
 40
15.0
 40
15.0
 40
16.0
 40
16.0
 40
16.0
 40
17.0
 40
17.0
 40
17.0
 40
18.0
 40
18.0
 40
18.0
 40
19.0
 40
19.0
 40
19.0
 40
20.0
 40
20.0
 40
20.0
 40
21.0
 40
21.0
 40
21.0
 40
22.0
 40
22.0
 40
22.0
 40
23.0
 40
23.0
 40
23.0
 40
24.0
 40
24.0
 40
24.0
 40
24.0
 10
-65.9587905390658
 20
-200.9769355053111
 10
-67.21852470541744
 20
-206.6409238372288
 10
-68.80292026057704
 20
-212.456359669108
 10
-70.79428026007921
 20
-219.4458399451385
 10
-71.13837970443771
 20
-220.6537157781698
 10
-71.48392553768447
 20
-221.8606743889792
 10
-71.82940081537587
 20
-223.0676329997885
 10
-72.60117275962752
 20
-225.7634549435591
 10
-73.39912081498342
 20
-228.5512107761953
 10
-74.18165248145453
 20
-231.3494793866069
 10
-74.41572053695178
 20
-232.186726886398
 10
-74.61913220356738
 20
-233.0288779972983
 10
-74.79209914796872
 20
-233.8741335526428
 10
-78.03963025826803
 20
-232.9713752195347
 10
-81.17903497970528
 20
-232.0562343864307
 10
-84.21123053450269
 20
-231.123807442219
 10
-83.940014979015
 20
-229.8697882758656
 10
-83.73106470128936
 20
-228.5918507761853
 10
-83.5873077568811
 20
-227.2920763320657
 10
-83.49526803468181
 20
-226.4598382767184
 10
-83.17886164587212
 20
-225.0391668881849
 10
-82.64666109044958
 20
-223.0671743886776
 10
-82.56566331269183
 20
-222.7668899443085
 10
-82.48149053493522
 20
-222.4633246666063
 10
-82.39583609051219
 20
-222.1603591111266
 10
-82.39583609051219
 20
-222.1603591111266
 10
-82.36503859051984
 20
-222.0524443889315
 10
-82.36503859051984
 20
-222.0524443889315
 10
-82.3223877571972
 20
-221.9069941111901
 10
-82.27984275720777
 20
-221.7616496667819
 10
-82.23659220166315
 20
-221.6164463334851
 10
-82.03346275726929
 20
-220.935091333655
 10
-81.81583414621259
 20
-220.2336632782751
 10
-81.58769275738098
 20
-219.5254618895634
 10
-81.11274803527743
 20
-218.0511330010429
 10
-80.58696803540867
 20
-216.5290027236453
 10
-80.02425220221617
 20
-215.0002049462498
 10
-78.86357803583962
 20
-211.8465480025943
 10
-77.61654386948484
 20
-208.8371066144573
 10
-76.31810998092034
 20
-206.0568649484859
 10
-75.69743275885333
 20
-204.7277393932623
 10
-75.10720025900089
 20
-203.5400424491152
 10
-74.51333414803828
 20
-202.4253352271712
 10
-74.23993137032899
 20
-201.9122905050775
 10
-73.96945664817433
 20
-201.4231993940888
 10
-73.71129387046093
 20
-200.9748188386451
 10
-73.7119641482386
 20
-200.9759830053116
 10
-73.71266970379413
 20
-200.9771471719781
 10
-73.71330470379398
 20
-200.9783113386446
 10
-73.71330470379398
 20
-200.9783113386446
 10
-73.70469692601827
 20
-200.9632124497591
 10
-73.70469692601827
 20
-200.9632124497591
 10
-73.70684887046204
 20
-200.9670224497582
 10
-73.70910664823933
 20
-200.9710441164236
 10
-73.71129387046093
 20
-200.9748188386451
 10
-73.6876224815782
 20
-200.9337202275443
 10
-73.66380998158412
 20
-200.8925157831102
 10
-73.63992692603435
 20
-200.8513466164536
 10
-73.58214192604903
 20
-200.7566610609222
 10
-73.52453331495226
 20
-200.6613052276126
 10
-73.46766553718854
 20
-200.5661963387476
 10
-73.44840387052688
 20
-200.5345168943105
 10
-73.42910692608704
 20
-200.5029080054298
 10
-73.40980998164752
 20
-200.4712285609933
 10
-70.8994785933863
 20
-198.1396143949096
 10
-68.72978942726198
 20
-195.4729318955761
 10
-66.95436470548369
 20
-192.5627974518591
 10
-66.10018387236391
 20
-192.6611871740571
 10
-65.23630165035761
 20
-192.7562960629221
 10
-64.37898109501647
 20
-192.8465013406772
 10
-64.8182247060178
 20
-195.5049993955684
 10
-65.34559220588585
 20
-198.2204005060003
 10
-65.9587905390658
 20
-200.9769355053111
 97
        1
330
9C
 92
        1
 93
        1
 72
     4
 94
        3
 73
     0
 74
     0
 95
      101
 96
       97
 40
0.0
 40
0.0
 40
0.0
 40
0.0
 40
1.0
 40
1.0
 40
1.0
 40
2.0
 40
2.0
 40
2.0
 40
3.0
 40
3.0
 40
3.0
 40
4.0
 40
4.0
 40
4.0
 40
5.0
 40
5.0
 40
5.0
 40
6.0
 40
6.0
 40
6.0
 40
7.0
 40
7.0
 40
7.0
 40
8.0
 40
8.0
 40
8.0
 40
9.0
 40
9.0
 40
9.0
 40
10.0
 40
10.0
 40
10.0
 40
11.0
 40
11.0
 40
11.0
 40
12.0
 40
12.0
 40
12.0
 40
13.0
 40
13.0
 40
13.0
 40
14.0
 40
14.0
 40
14.0
 40
15.0
 40
15.0
 40
15.0
 40
16.0
 40
16.0
 40
16.0
 40
17.0
 40
17.0
 40
17.0
 40
18.0
 40
18.0
 40
18.0
 40
19.0
 40
19.0
 40
19.0
 40
20.0
 40
20.0
 40
20.0
 40
21.0
 40
21.0
 40
21.0
 40
22.0
 40
22.0
 40
22.0
 40
23.0
 40
23.0
 40
23.0
 40
24.0
 40
24.0
 40
24.0
 40
25.0
 40
25.0
 40
25.0
 40
26.0
 40
26.0
 40
26.0
 40
27.0
 40
27.0
 40
27.0
 40
28.0
 40
28.0
 40
28.0
 40
29.0
 40
29.0
 40
29.0
 40
30.0
 40
30.0
 40
30.0
 40
31.0
 40
31.0
 40
31.0
 40
32.0
 40
32.0
 40
32.0
 40
32.0
 10
-66.36490831674215
 20
-187.4367952309185
 10
-66.36490831674215
 20
-187.4367952309185
 10
-69.64129664925643
 20
-187.0600991199019
 10
-69.64129664925643
 20
-187.0600991199019
 10
-69.64129664925643
 20
-187.0600991199019
 10
-71.3590774821601
 20
-189.8753010636422
 10
-71.3590774821601
 20
-189.8753010636422
 10
-72.8997638706641
 20
-192.400484396344
 10
-74.77121470352928
 20
-194.6933635624374
 10
-76.92135998076955
 20
-196.6904738397164
 10
-76.92135998076955
 20
-196.6904738397164
 10
-77.44798664730454
 20
-197.1795296729275
 10
-77.44798664730454
 20
-197.1795296729275
 10
-77.44798664730454
 20
-197.1795296729275
 10
-77.89862498052521
 20
-197.9218446727418
 10
-77.89862498052521
 20
-197.9218446727418
 10
-77.94649692495794
 20
-198.002136894944
 10
-78.07550775825879
 20
-198.2141916171132
 10
-78.07550775825879
 20
-198.2141916171132
 10
-78.07550775825879
 20
-198.2141916171132
 10
-78.18246998045438
 20
-198.3996116170665
 10
-78.18246998045438
 20
-198.3996116170665
 10
-78.18246998045438
 20
-198.3996116170665
 10
-78.18472775823167
 20
-198.4033157837323
 10
-78.18472775823167
 20
-198.4033157837323
 10
-78.47030136927116
 20
-198.899215505831
 10
-78.76719914697495
 20
-199.436037450141
 10
-79.06709553578875
 20
-199.9989649500002
 10
-79.70251886896318
 20
-201.1916007830353
 10
-80.33257997991681
 20
-202.4589196716078
 10
-80.99319164641853
 20
-203.8734527268093
 10
-82.35314997941172
 20
-206.7853157816369
 10
-83.65634636797471
 20
-209.9292360586291
 10
-84.86662108989433
 20
-213.2180774466953
 10
-85.45307886752553
 20
-214.811221890742
 10
-86.00224803405494
 20
-216.4009796681217
 10
-86.49910025615303
 20
-217.9434299455142
 10
-86.73845997831541
 20
-218.6864152231059
 10
-86.96797720048024
 20
-219.4262960562547
 10
-87.18147831153798
 20
-220.1424702227424
 10
-87.18147831153798
 20
-220.1424702227424
 10
-87.32826914483473
 20
-220.6412627226175
 10
-87.32826914483473
 20
-220.6412627226175
 10
-87.32826914483473
 20
-220.6412627226175
 10
-87.35903136704925
 20
-220.7494243892571
 10
-87.35903136704925
 20
-220.7494243892571
 10
-87.45227053369253
 20
-221.0789541113971
 10
-87.54222886700341
 20
-221.4034038335383
 10
-87.62887108920406
 20
-221.7242905001244
 10
-88.2460205334941
 20
-224.0112077217747
 10
-88.59156636674086
 20
-225.6006127213773
 10
-88.7159910889321
 20
-226.7247391099858
 10
-88.83882831112375
 20
-227.8357421652632
 10
-89.01997969996735
 20
-228.9486502205409
 10
-89.25450636657522
 20
-230.0326657758255
 10
-89.25450636657522
 20
-230.0326657758255
 10
-90.25621886632482
 20
-234.6631563302233
 10
-90.25621886632482
 20
-234.6631563302233
 10
-90.25621886632482
 20
-234.6631563302233
 10
-85.72806914523477
 20
-236.055746607653
 10
-85.72806914523477
 20
-236.055746607653
 10
-82.71961553487576
 20
-236.9808710518656
 10
-79.50517498012359
 20
-237.9195068849644
 10
-76.17400025873431
 20
-238.8455485513996
 10
-76.17400025873431
 20
-238.8455485513996
 10
-70.84546831562187
 20
-240.3268624399183
 10
-70.84546831562187
 20
-240.3268624399183
 10
-70.84546831562187
 20
-240.3268624399183
 10
-69.73689942701021
 20
-234.9084074412732
 10
-69.73689942701021
 20
-234.9084074412732
 10
-69.58852109371385
 20
-234.1834843858985
 10
-69.41195581598049
 20
-233.4533402194143
 10
-69.21217776047474
 20
-232.7384713307046
 10
-68.43299748289171
 20
-229.95226772029
 10
-67.63769526086838
 20
-227.1741427209846
 10
-66.86874553883851
 20
-224.4874577216558
 10
-66.86874553883851
 20
-224.4874577216558
 10
-66.84676748328827
 20
-224.4105521661198
 10
-66.84676748328827
 20
-224.4105521661198
 10
-66.50803026115089
 20
-223.2271591108597
 10
-66.16925776123536
 20
-222.0439777222665
 10
-65.83186109465303
 20
-220.8595616114519
 10
-63.81594776182374
 20
-213.7838977243317
 10
-62.20936248444782
 20
-207.8854885591396
 10
-60.92186470699169
 20
-202.097287171698
 10
-60.29095692937183
 20
-199.2606716168513
 10
-59.74136442950898
 20
-196.4311468953368
 10
-59.28808026295576
 20
-193.6875941182449
 10
-59.28808026295576
 20
-193.6875941182449
 10
-58.39604637429
 20
-188.2876246751502
 10
-58.39604637429
 20
-188.2876246751502
 10
-58.39604637429
 20
-188.2876246751502
 10
-63.83901942848478
 20
-187.7147488419605
 10
-63.83901942848478
 20
-187.7147488419605
 10
-64.68145276160747
 20
-187.6262368975379
 10
-65.53129442806156
 20
-187.532609675339
 10
-66.36490831674215
 20
-187.4367952309185
 97
        1
330
9D
 75
     2
 76
     1
 98
        1
 10
0.0
 20
0.0
450
        0
451
        0
460
0.0
461
0.0
452
        0
462
0.0
453
        0
470

  0
SPLINE
  5
9F
330
7A
100
AcDbEntity
  8
Livello 1
100
AcDbSpline
210
0.0
220
0.0
230
1.0
 70
     9
 71
     3
 72
   161
 73
   157
 74
     0
 42
0.0000000001
 43
0.0000000001
 40
0.0
 40
0.0
 40
0.0
 40
0.0
 40
1.0
 40
1.0
 40
1.0
 40
2.0
 40
2.0
 40
2.0
 40
3.0
 40
3.0
 40
3.0
 40
4.0
 40
4.0
 40
4.0
 40
5.0
 40
5.0
 40
5.0
 40
6.0
 40
6.0
 40
6.0
 40
7.0
 40
7.0
 40
7.0
 40
8.0
 40
8.0
 40
8.0
 40
9.0
 40
9.0
 40
9.0
 40
10.0
 40
10.0
 40
10.0
 40
11.0
 40
11.0
 40
11.0
 40
12.0
 40
12.0
 40
12.0
 40
13.0
 40
13.0
 40
13.0
 40
14.0
 40
14.0
 40
14.0
 40
15.0
 40
15.0
 40
15.0
 40
16.0
 40
16.0
 40
16.0
 40
17.0
 40
17.0
 40
17.0
 40
18.0
 40
18.0
 40
18.0
 40
19.0
 40
19.0
 40
19.0
 40
20.0
 40
20.0
 40
20.0
 40
21.0
 40
21.0
 40
21.0
 40
22.0
 40
22.0
 40
22.0
 40
23.0
 40
23.0
 40
23.0
 40
24.0
 40
24.0
 40
24.0
 40
25.0
 40
25.0
 40
25.0
 40
26.0
 40
26.0
 40
26.0
 40
27.0
 40
27.0
 40
27.0
 40
28.0
 40
28.0
 40
28.0
 40
29.0
 40
29.0
 40
29.0
 40
30.0
 40
30.0
 40
30.0
 40
31.0
 40
31.0
 40
31.0
 40
32.0
 40
32.0
 40
32.0
 40
33.0
 40
33.0
 40
33.0
 40
34.0
 40
34.0
 40
34.0
 40
35.0
 40
35.0
 40
35.0
 40
36.0
 40
36.0
 40
36.0
 40
37.0
 40
37.0
 40
37.0
 40
38.0
 40
38.0
 40
38.0
 40
39.0
 40
39.0
 40
39.0
 40
40.0
 40
40.0
 40
40.0
 40
41.0
 40
41.0
 40
41.0
 40
42.0
 40
42.0
 40
42.0
 40
43.0
 40
43.0
 40
43.0
 40
44.0
 40
44.0
 40
44.0
 40
45.0
 40
45.0
 40
45.0
 40
46.0
 40
46.0
 40
46.0
 40
47.0
 40
47.0
 40
47.0
 40
48.0
 40
48.0
 40
48.0
 40
49.0
 40
49.0
 40
49.0
 40
50.0
 40
50.0
 40
50.0
 40
51.0
 40
51.0
 40
51.0
 40
52.0
 40
52.0
 40
52.0
 40
52.0
 10
375.9576412948997
 20
-236.566568829747
 30
0.0
 10
375.3972185172617
 20
-238.668348273666
 30
0.0
 10
374.6977307396589
 20
-240.7329449398165
 30
0.0
 10
373.7344357398994
 20
-242.6864871615508
 30
0.0
 10
373.2557515733528
 20
-243.6572963279746
 30
0.0
 10
372.7125443512663
 20
-244.5998832721831
 30
0.0
 10
372.1225587958584
 20
-245.5071924386233
 30
0.0
 10
371.4805737960191
 20
-246.494335216154
 30
0.0
 10
370.7240418517637
 20
-247.3102749381725
 30
0.0
 10
369.8107354631029
 20
-248.0587282713189
 30
0.0
 10
365.4454279641939
 20
-251.6361418815356
 30
0.0
 10
359.8021476878271
 20
-253.3133885477829
 30
0.0
 10
354.3926532447354
 20
-254.5378449363658
 30
0.0
 10
351.7123093604048
 20
-255.1446579917691
 30
0.0
 10
349.0041755406061
 20
-255.6167452138734
 30
0.0
 10
346.2963944985763
 20
-256.0815652137573
 30
0.0
 10
343.9515865028417
 20
-256.484084658101
 30
0.0
 10
341.5830804701597
 20
-256.8449763246778
 30
0.0
 10
339.2660980112674
 20
-257.3945688245403
 30
0.0
 10
339.247753567291
 20
-257.402964935649
 30
0.0
 10
339.2102971374194
 20
-257.4178874356456
 30
0.0
 10
339.1437899588322
 20
-257.4427935467502
 30
0.0
 10
339.0599699609706
 20
-257.4740496578538
 30
0.0
 10
338.9736452409508
 20
-257.4999788245141
 30
0.0
 10
338.8888374653366
 20
-257.5285538245071
 30
0.0
 10
338.719292469662
 20
-257.5858449356036
 30
0.0
 10
338.5497827517644
 20
-257.6432771578114
 30
0.0
 10
338.3803435894205
 20
-257.701026880019
 30
0.0
 10
338.0425588758158
 20
-257.8160324355461
 30
0.0
 10
337.70512693998
 20
-257.9319904910727
 30
0.0
 10
337.3680125041361
 20
-258.048759935488
 30
0.0
 10
336.6426661337523
 20
-258.3001141020917
 30
0.0
 10
335.9186603188899
 20
-258.5554546575833
 30
0.0
 10
335.195959781772
 20
-258.8141818797412
 30
0.0
 10
333.7981131507673
 20
-259.3145971573938
 30
0.0
 10
332.4048610280099
 20
-259.8279241017096
 30
0.0
 10
331.0147318328884
 20
-260.3494707682458
 30
0.0
 10
328.3108749179224
 20
-261.3639185457704
 30
0.0
 10
325.6191804741506
 20
-262.4100810455084
 30
0.0
 10
322.9245850948408
 20
-263.4488352119159
 30
0.0
 10
317.8320968914277
 20
-265.4118671558691
 30
0.0
 10
312.7239453550808
 20
-267.3614229887154
 30
0.0
 10
307.4891465997428
 20
-268.9171377105483
 30
0.0
 10
302.4199064512921
 20
-270.4236752101719
 30
0.0
 10
297.2204560283856
 20
-271.6026938209882
 30
0.0
 10
291.9318939410858
 20
-271.9480632653461
 30
0.0
 10
286.5522165950284
 20
-272.2994299319252
 30
0.0
 10
281.125393661227
 20
-271.8357388209303
 30
0.0
 10
275.9226976828478
 20
-270.402720210177
 30
0.0
 10
269.642195065299
 20
-268.6728390994986
 30
0.0
 10
263.8498663241847
 20
-265.7971004891062
 30
0.0
 10
258.4209692404651
 20
-262.2185579900012
 30
0.0
 10
257.3283812127838
 20
-261.4983268790699
 30
0.0
 10
257.3399170458229
 20
-259.8866968794729
 30
0.0
 10
258.0306206393126
 20
-258.9285524352678
 30
0.0
 10
258.3915475745491
 20
-258.4277138242818
 30
0.0
 10
258.9020170059704
 20
-258.1630599354596
 30
0.0
 10
259.4474114365007
 20
-258.0887296576999
 30
0.0
 10
259.3369214393195
 20
-257.864468824423
 30
0.0
 10
259.2572289413526
 20
-257.6211227133726
 30
0.0
 10
259.2150719979837
 20
-257.3646532689921
 30
0.0
 10
259.0097200587782
 20
-256.1149732693043
 30
0.0
 10
260.0485447544978
 20
-254.9066388251621
 30
0.0
 10
261.2654582680168
 20
-254.7622116029759
 30
0.0
 10
262.3203277520953
 20
-254.6370107696743
 30
0.0
 10
263.3751685585174
 20
-254.5112807697056
 30
0.0
 10
264.4298749338927
 20
-254.3845982697374
 30
0.0
 10
272.4026527096774
 20
-253.4269477144208
 30
0.0
 10
280.3744003470531
 20
-252.4271402146708
 30
0.0
 10
288.2999057004122
 20
-251.1280007705511
 30
0.0
 10
291.9154971492436
 20
-250.5354752151438
 30
0.0
 10
295.5209491272992
 20
-249.8780032708638
 30
0.0
 10
299.1060532025022
 20
-249.1216124377197
 30
0.0
 10
300.8243278808876
 20
-248.7591332711436
 30
0.0
 10
302.5378753371713
 20
-248.3736177156843
 30
0.0
 10
304.2449669602865
 20
-247.9613968824541
 30
0.0
 10
304.6962402821068
 20
-247.8524238269258
 30
0.0
 10
305.1471332570467
 20
-247.741545771398
 30
0.0
 10
305.5974816480031
 20
-247.6287274380931
 30
0.0
 10
305.7864999765142
 20
-247.5814199381046
 30
0.0
 10
305.9754554790619
 20
-247.5337596603389
 30
0.0
 10
306.1642544113214
 20
-247.4857466047954
 30
0.0
 10
306.258446075585
 20
-247.4617929936903
 30
0.0
 10
306.3525749234118
 20
-247.4362871603634
 30
0.0
 10
306.4470410707735
 20
-247.4135329937023
 30
0.0
 10
306.4265799601844
 20
-247.4184718825896
 30
0.0
 10
306.4099994050519
 20
-247.4224582714776
 30
0.0
 10
306.3915138499679
 20
-247.4269385492546
 30
0.0
 10
306.3717935726933
 20
-247.4320538270309
 30
0.0
 10
306.3521438509724
 20
-247.4373807714742
 30
0.0
 10
306.3323882959208
 20
-247.4425666048061
 30
0.0
 10
306.1790357998331
 20
-247.4823952159073
 30
0.0
 10
305.8248469199804
 20
-247.5634635492201
 30
0.0
 10
306.3915138499679
 20
-247.4269385492546
 30
0.0
 10
307.1909082740181
 20
-247.2188349381952
 30
0.0
 10
307.9887582563364
 20
-247.0046988271377
 30
0.0
 10
308.784652400025
 20
-246.7835424383043
 30
0.0
 10
315.3451900104295
 20
-244.9602104943158
 30
0.0
 10
321.7755173463782
 20
-242.6616516060013
 30
0.0
 10
327.9411202446361
 20
-239.7649932733924
 30
0.0
 10
329.5079474268853
 20
-239.0289577180208
 30
0.0
 10
331.0572499172358
 20
-238.2555277182142
 30
0.0
 10
332.587203459438
 20
-237.4456204961938
 30
0.0
 10
333.3612684396899
 20
-237.0357985518523
 30
0.0
 10
334.1303592534022
 20
-236.6166632741789
 30
0.0
 10
334.8943347894671
 20
-236.1883557742862
 30
0.0
 10
335.0483575633154
 20
-236.1020663298634
 30
0.0
 10
335.7262638049576
 20
-235.6582718855299
 30
0.0
 10
335.133623950029
 20
-236.0546529965422
 30
0.0
 10
335.2955221383981
 20
-235.9463502187913
 30
0.0
 10
335.4758889412971
 20
-235.8584732743685
 30
0.0
 10
335.6446578258803
 20
-235.7609302188373
 30
0.0
 10
336.0074544832912
 20
-235.5511332744455
 30
0.0
 10
336.3690249159075
 20
-235.3391843856095
 30
0.0
 10
336.7293789093178
 20
-235.125259941219
 30
0.0
 10
339.8534729962822
 20
-233.2707071639044
 30
0.0
 10
342.8852098633806
 20
-231.2621316088514
 30
0.0
 10
345.8218731217934
 20
-229.123557442719
 30
0.0
 10
348.9688624859515
 20
-226.8317718877364
 30
0.0
 10
352.0064907417885
 20
-224.3915727216796
 30
0.0
 10
354.9433393557087
 20
-221.8366149445408
 30
0.0
 10
356.496619910876
 20
-220.4853349448784
 30
0.0
 10
358.0218899104946
 20
-219.1019874452242
 30
0.0
 10
359.5210190767864
 20
-217.6909116122441
 30
0.0
 10
360.3081368543675
 20
-216.9500077235401
 30
0.0
 10
361.0873171319502
 20
-216.2008488348389
 30
0.0
 10
361.861241020646
 20
-215.4461866128048
 30
0.0
 10
361.8800440761967
 20
-215.42777161281
 30
0.0
 10
361.8958837984152
 20
-215.4123905017025
 30
0.0
 10
361.9104535206334
 20
-215.3981735572614
 30
0.0
 10
361.923964909519
 20
-215.3847680017097
 30
0.0
 10
361.9385699095154
 20
-215.3704099461572
 30
0.0
 10
361.9555737984004
 20
-215.3535471683842
 30
0.0
 10
362.0427099094895
 20
-215.2675046684052
 30
0.0
 10
362.1299165761343
 20
-215.1816738350933
 30
0.0
 10
362.2169468538902
 20
-215.0955607795593
 30
0.0
 10
362.3917482427357
 20
-214.9227349462697
 30
0.0
 10
362.5661262982471
 20
-214.7494857796459
 30
0.0
 10
362.7401868537596
 20
-214.5758838352451
 30
0.0
 10
363.1354390758829
 20
-214.1817957797876
 30
0.0
 10
363.528645186896
 20
-213.7857674465537
 30
0.0
 10
363.9205812979088
 20
-213.3883985577638
 30
0.0
 10
364.8427776865673
 20
-212.4532552246644
 30
0.0
 10
366.0864957418119
 20
-212.1877546691753
 30
0.0
 10
367.2105868526415
 20
-212.9980146689728
 30
0.0
 10
367.5003937970142
 20
-213.2068591133652
 30
0.0
 10
367.7298051858455
 20
-213.5135641132884
 30
0.0
 10
367.8846393524731
 20
-213.8633432798676
 30
0.0
 10
368.4151818523404
 20
-214.0033960576101
 30
0.0
 10
368.9367990744323
 20
-214.1766099464557
 30
0.0
 10
369.4401424076402
 20
-214.3840080019595
 30
0.0
 10
373.4875265732946
 20
-216.0516943904316
 30
0.0
 10
375.7221268505139
 20
-219.8855068894733
 30
0.0
 10
376.5981799058504
 20
-224.0039404995544
 30
0.0
 10
377.4696115722991
 20
-228.1006429985307
 30
0.0
 10
377.0286393501872
 20
-232.5496293863069
 30
0.0
 10
375.9576412948997
 20
-236.566568829747
 30
0.0
  0
SPLINE
  5
A0
330
7A
100
AcDbEntity
  8
Livello 1
100
AcDbSpline
210
0.0
220
0.0
230
1.0
 70
     9
 71
     3
 72
   158
 73
   154
 74
     0
 42
0.0000000001
 43
0.0000000001
 40
0.0
 40
0.0
 40
0.0
 40
0.0
 40
1.0
 40
1.0
 40
1.0
 40
2.0
 40
2.0
 40
2.0
 40
3.0
 40
3.0
 40
3.0
 40
4.0
 40
4.0
 40
4.0
 40
5.0
 40
5.0
 40
5.0
 40
6.0
 40
6.0
 40
6.0
 40
7.0
 40
7.0
 40
7.0
 40
8.0
 40
8.0
 40
8.0
 40
9.0
 40
9.0
 40
9.0
 40
10.0
 40
10.0
 40
10.0
 40
11.0
 40
11.0
 40
11.0
 40
12.0
 40
12.0
 40
12.0
 40
13.0
 40
13.0
 40
13.0
 40
14.0
 40
14.0
 40
14.0
 40
15.0
 40
15.0
 40
15.0
 40
16.0
 40
16.0
 40
16.0
 40
17.0
 40
17.0
 40
17.0
 40
18.0
 40
18.0
 40
18.0
 40
19.0
 40
19.0
 40
19.0
 40
20.0
 40
20.0
 40
20.0
 40
21.0
 40
21.0
 40
21.0
 40
22.0
 40
22.0
 40
22.0
 40
23.0
 40
23.0
 40
23.0
 40
24.0
 40
24.0
 40
24.0
 40
25.0
 40
25.0
 40
25.0
 40
26.0
 40
26.0
 40
26.0
 40
27.0
 40
27.0
 40
27.0
 40
28.0
 40
28.0
 40
28.0
 40
29.0
 40
29.0
 40
29.0
 40
30.0
 40
30.0
 40
30.0
 40
31.0
 40
31.0
 40
31.0
 40
32.0
 40
32.0
 40
32.0
 40
33.0
 40
33.0
 40
33.0
 40
34.0
 40
34.0
 40
34.0
 40
35.0
 40
35.0
 40
35.0
 40
36.0
 40
36.0
 40
36.0
 40
37.0
 40
37.0
 40
37.0
 40
38.0
 40
38.0
 40
38.0
 40
39.0
 40
39.0
 40
39.0
 40
40.0
 40
40.0
 40
40.0
 40
41.0
 40
41.0
 40
41.0
 40
42.0
 40
42.0
 40
42.0
 40
43.0
 40
43.0
 40
43.0
 40
44.0
 40
44.0
 40
44.0
 40
45.0
 40
45.0
 40
45.0
 40
46.0
 40
46.0
 40
46.0
 40
47.0
 40
47.0
 40
47.0
 40
48.0
 40
48.0
 40
48.0
 40
49.0
 40
49.0
 40
49.0
 40
50.0
 40
50.0
 40
50.0
 40
51.0
 40
51.0
 40
51.0
 40
51.0
 10
371.406031851593
 20
-209.6131824475965
 30
0.0
 10
371.2675312960717
 20
-209.5562088364995
 30
0.0
 10
371.1277960183295
 20
-209.500787447625
 30
0.0
 10
370.9868260183646
 20
-209.4471652254162
 30
0.0
 10
370.7486304628687
 20
-209.2170835588069
 30
0.0
 10
370.495018518487
 20
-209.0048171699713
 30
0.0
 10
370.2280362963318
 20
-208.8122005033528
 30
0.0
 10
368.6666771300555
 20
-207.6867335591896
 30
0.0
 10
366.7882060194139
 20
-207.1876941148699
 30
0.0
 10
364.9383451865433
 20
-207.4071571703707
 30
0.0
 10
363.1849337980924
 20
-207.615225503652
 30
0.0
 10
361.5623324096091
 20
-208.4308830034478
 30
0.0
 10
360.2463301877164
 20
-209.7656177253362
 30
0.0
 10
359.8650832433671
 20
-210.1520857807956
 30
0.0
 10
359.4819312990183
 20
-210.5380246695876
 30
0.0
 10
359.0968390768925
 20
-210.9220232806027
 30
0.0
 10
358.9262357436019
 20
-211.0924855027825
 30
0.0
 10
358.7574315769771
 20
-211.2598432805181
 30
0.0
 10
358.5883804659083
 20
-211.4270599471431
 30
0.0
 10
358.5883804659083
 20
-211.4270599471431
 30
0.0
 10
358.2568046326581
 20
-211.7538732803948
 30
0.0
 10
358.2568046326581
 20
-211.7538732803948
 30
0.0
 10
357.4476735217489
 20
-212.5430018913086
 30
0.0
 10
356.7037004663796
 20
-213.2565302244636
 30
0.0
 10
355.9842101887814
 20
-213.9337577242944
 30
0.0
 10
354.5143615780381
 20
-215.3172110572818
 30
0.0
 10
353.0245104672993
 20
-216.666515501389
 30
0.0
 10
351.5565579754895
 20
-217.9435357788475
 30
0.0
 10
348.6517505495972
 20
-220.4709416115491
 30
0.0
 10
345.7002000693421
 20
-222.828908277626
 30
0.0
 10
342.784385977064
 20
-224.9524541104285
 30
0.0
 10
339.9364110497219
 20
-227.0264346654659
 30
0.0
 10
337.0130122354151
 20
-228.9560938316502
 30
0.0
 10
334.0953284209625
 20
-230.6881974423278
 30
0.0
 10
333.7993915832167
 20
-230.8640924422841
 30
0.0
 10
333.5034731582843
 20
-231.0379060533514
 30
0.0
 10
333.2066812214116
 20
-231.2098852199754
 30
0.0
 10
332.8804676186229
 20
-231.3617207754928
 30
0.0
 10
332.634828458223
 20
-231.5168724421207
 30
0.0
 10
332.4694815179969
 20
-231.6213652198726
 30
0.0
 10
332.4195634637149
 20
-231.6530799420866
 30
0.0
 10
332.3600851318989
 20
-231.6907213309661
 30
0.0
 10
332.3109079109313
 20
-231.7212718865142
 30
0.0
 10
331.6045409845078
 20
-232.1165593864151
 30
0.0
 10
330.8843451695482
 20
-232.5088482752062
 30
0.0
 10
330.1730746321386
 20
-232.8851916084456
 30
0.0
 10
328.7241810579919
 20
-233.6521304971425
 30
0.0
 10
327.2350002626507
 20
-234.3957507747347
 30
0.0
 10
325.7468072450621
 20
-235.0950974412262
 30
0.0
 10
320.1474126656924
 20
-237.7253732739022
 30
0.0
 10
313.9756361564808
 20
-239.9853735511146
 30
0.0
 10
307.4030335463842
 20
-241.8120568839912
 30
0.0
 10
306.6705257872942
 20
-242.0156802172741
 30
0.0
 10
305.9060210845761
 20
-242.2213143838892
 30
0.0
 10
305.129980548819
 20
-242.4233149393941
 30
0.0
 10
305.074841383559
 20
-242.437037994946
 30
0.0
 10
305.0208663849361
 20
-242.451149106054
 30
0.0
 10
304.9671383307512
 20
-242.4657541060503
 30
0.0
 10
304.9671383307512
 20
-242.4657541060503
 30
0.0
 10
304.5250372309191
 20
-242.5781843837999
 30
0.0
 10
304.343215568891
 20
-242.6237632726772
 30
0.0
 10
303.9089108577489
 20
-242.7323835504277
 30
0.0
 10
303.4722072577789
 20
-242.83987493929
 30
0.0
 10
303.0346999242411
 20
-242.9454613281527
 30
0.0
 10
301.4282481432581
 20
-243.3334110502775
 30
0.0
 10
299.7484615194463
 20
-243.7125766057384
 30
0.0
 10
298.0408760074549
 20
-244.0730449389818
 30
0.0
 10
294.7569735912342
 20
-244.7657946610309
 30
0.0
 10
291.2976700683773
 20
-245.4078854942033
 30
0.0
 10
287.465304055038
 20
-246.0360416051574
 30
0.0
 10
279.3630217617444
 20
-247.3640735492702
 30
0.0
 10
271.0089266970974
 20
-248.3973949379006
 30
0.0
 10
263.8144474361994
 20
-249.2614182710183
 30
0.0
 10
262.7619702408281
 20
-249.3878891043194
 30
0.0
 10
261.7096694343412
 20
-249.5133016042886
 30
0.0
 10
260.6574039056312
 20
-249.6381849375905
 30
0.0
 10
258.6422027131171
 20
-249.8772977153083
 30
0.0
 10
256.7724387269671
 20
-250.9635710483701
 30
0.0
 10
255.5276270920582
 20
-252.6183810479565
 30
0.0
 10
254.8899812749926
 20
-253.4660707699665
 30
0.0
 10
254.446292675201
 20
-254.43151771417
 30
0.0
 10
254.2155471586686
 20
-255.438627713918
 30
0.0
 10
254.0864304920343
 20
-255.5901457694357
 30
0.0
 10
253.962846020868
 20
-255.7475199360634
 30
0.0
 10
253.8450182460963
 20
-255.9109618804668
 30
0.0
 10
252.6188332773788
 20
-257.6122327133749
 30
0.0
 10
252.134222456409
 20
-259.7762068795003
 30
0.0
 10
252.5149402244738
 20
-261.8487057678709
 30
0.0
 10
252.8731154931138
 20
-263.7979088229396
 30
0.0
 10
253.9619993542229
 20
-265.4593510447465
 30
0.0
 10
255.5809670906974
 20
-266.526574377813
 30
0.0
 10
261.9382341507322
 20
-270.7172568767654
 30
0.0
 10
268.1439193774088
 20
-273.6123982649301
 30
0.0
 10
274.5526499400228
 20
-275.3772043755999
 30
0.0
 10
280.1540553526746
 20
-276.9203602085479
 30
0.0
 10
286.1145885339421
 20
-277.4989510417362
 30
0.0
 10
292.2681969880616
 20
-277.0968902085034
 30
0.0
 10
293.2696977958445
 20
-277.0316263196311
 30
0.0
 10
294.2995266584603
 20
-276.936482152988
 30
0.0
 10
295.3293907988529
 20
-276.8142799307968
 30
0.0
 10
299.4733301375766
 20
-276.3225782642525
 30
0.0
 10
303.9316297460581
 20
-275.3573077089384
 30
0.0
 10
308.9589598955781
 20
-273.8634349315342
 30
0.0
 10
314.1854330955729
 20
-272.3100838208112
 30
0.0
 10
319.2163968561112
 20
-270.4083293768424
 30
0.0
 10
324.7806547697107
 20
-268.2633699329342
 30
0.0
 10
324.7806547697107
 20
-268.2633699329342
 30
0.0
 10
326.3304780635048
 20
-267.665270488639
 30
0.0
 10
326.3304780635048
 20
-267.665270488639
 30
0.0
 10
328.4610088424837
 20
-266.8426632666225
 30
0.0
 10
330.6641765640541
 20
-265.992151322391
 30
0.0
 10
332.8275156755294
 20
-265.1805154892607
 30
0.0
 10
334.3077443608676
 20
-264.6252079893989
 30
0.0
 10
335.6513958812639
 20
-264.1317424339671
 30
0.0
 10
336.9352952929534
 20
-263.6720024340819
 30
0.0
 10
337.6407449971781
 20
-263.4196957674781
 30
0.0
 10
338.3482760902386
 20
-263.1699643786519
 30
0.0
 10
339.0572182943742
 20
-262.9243957676024
 30
0.0
 10
339.3863332484871
 20
-262.8103427120754
 30
0.0
 10
339.7149724442601
 20
-262.6974185454367
 30
0.0
 10
340.0441493803066
 20
-262.5853410454648
 30
0.0
 10
340.0441493803066
 20
-262.5853410454648
 30
0.0
 10
340.5645318670305
 20
-262.4091991010646
 30
0.0
 10
340.5645318670305
 20
-262.4091991010646
 30
0.0
 10
340.6290549209399
 20
-262.3882793788474
 30
0.0
 10
340.6932957526344
 20
-262.3670421566305
 30
0.0
 10
340.757466028775
 20
-262.3451346566362
 30
0.0
 10
342.3806318206979
 20
-261.9733068789514
 30
0.0
 10
344.0601009445178
 20
-261.691155212355
 30
0.0
 10
345.832103677088
 20
-261.3933754902071
 30
0.0
 10
346.2782264434843
 20
-261.3184454902257
 30
0.0
 10
346.724208098773
 20
-261.243515490245
 30
0.0
 10
347.1693165798746
 20
-261.1672096569307
 30
0.0
 10
350.1335230117941
 20
-260.6583629903913
 30
0.0
 10
352.8086104673536
 20
-260.1869813238419
 30
0.0
 10
355.5317726888948
 20
-259.5706079906628
 30
0.0
 10
361.251852687465
 20
-258.2757724354312
 30
0.0
 10
367.8101679636027
 20
-256.3694671581298
 30
0.0
 10
373.0812676845076
 20
-252.0495974369874
 30
0.0
 10
374.4374160175017
 20
-250.9386649372655
 30
0.0
 10
375.5387176838933
 20
-249.7187241042372
 30
0.0
 10
376.4481435169988
 20
-248.3205246601421
 30
0.0
 10
377.1653054612646
 20
-247.217776604862
 30
0.0
 10
377.8092307388809
 20
-246.0898049384776
 30
0.0
 10
378.3623157387429
 20
-244.9683949387581
 30
0.0
 10
379.3806087940434
 20
-242.9035160503855
 30
0.0
 10
380.2249118493884
 20
-240.5899993842969
 30
0.0
 10
380.9434143492083
 20
-237.8962235516373
 30
0.0
 10
382.3571712932993
 20
-232.5930210529632
 30
0.0
 10
382.5998824043504
 20
-227.4179827209234
 30
0.0
 10
381.645124626811
 20
-222.9302966109343
 30
0.0
 10
380.277475738264
 20
-216.4998632792083
 30
0.0
 10
376.6410071280619
 20
-211.77024216928
 30
0.0
 10
371.406031851593
 20
-209.6131824475965
 30
0.0
  0
HATCH
  5
A1
330
7A
100
AcDbEntity
  8
Livello 1
 62
   250
440
 33554687
100
AcDbHatch
 10
0.0
 20
0.0
 30
0.0
210
0.0
220
0.0
230
1.0
  2
SOLID
 70
     1
 71
     1
 91
        2
 92
        1
 93
        1
 72
     4
 94
        3
 73
     0
 74
     0
 95
      161
 96
      157
 40
0.0
 40
0.0
 40
0.0
 40
0.0
 40
1.0
 40
1.0
 40
1.0
 40
2.0
 40
2.0
 40
2.0
 40
3.0
 40
3.0
 40
3.0
 40
4.0
 40
4.0
 40
4.0
 40
5.0
 40
5.0
 40
5.0
 40
6.0
 40
6.0
 40
6.0
 40
7.0
 40
7.0
 40
7.0
 40
8.0
 40
8.0
 40
8.0
 40
9.0
 40
9.0
 40
9.0
 40
10.0
 40
10.0
 40
10.0
 40
11.0
 40
11.0
 40
11.0
 40
12.0
 40
12.0
 40
12.0
 40
13.0
 40
13.0
 40
13.0
 40
14.0
 40
14.0
 40
14.0
 40
15.0
 40
15.0
 40
15.0
 40
16.0
 40
16.0
 40
16.0
 40
17.0
 40
17.0
 40
17.0
 40
18.0
 40
18.0
 40
18.0
 40
19.0
 40
19.0
 40
19.0
 40
20.0
 40
20.0
 40
20.0
 40
21.0
 40
21.0
 40
21.0
 40
22.0
 40
22.0
 40
22.0
 40
23.0
 40
23.0
 40
23.0
 40
24.0
 40
24.0
 40
24.0
 40
25.0
 40
25.0
 40
25.0
 40
26.0
 40
26.0
 40
26.0
 40
27.0
 40
27.0
 40
27.0
 40
28.0
 40
28.0
 40
28.0
 40
29.0
 40
29.0
 40
29.0
 40
30.0
 40
30.0
 40
30.0
 40
31.0
 40
31.0
 40
31.0
 40
32.0
 40
32.0
 40
32.0
 40
33.0
 40
33.0
 40
33.0
 40
34.0
 40
34.0
 40
34.0
 40
35.0
 40
35.0
 40
35.0
 40
36.0
 40
36.0
 40
36.0
 40
37.0
 40
37.0
 40
37.0
 40
38.0
 40
38.0
 40
38.0
 40
39.0
 40
39.0
 40
39.0
 40
40.0
 40
40.0
 40
40.0
 40
41.0
 40
41.0
 40
41.0
 40
42.0
 40
42.0
 40
42.0
 40
43.0
 40
43.0
 40
43.0
 40
44.0
 40
44.0
 40
44.0
 40
45.0
 40
45.0
 40
45.0
 40
46.0
 40
46.0
 40
46.0
 40
47.0
 40
47.0
 40
47.0
 40
48.0
 40
48.0
 40
48.0
 40
49.0
 40
49.0
 40
49.0
 40
50.0
 40
50.0
 40
50.0
 40
51.0
 40
51.0
 40
51.0
 40
52.0
 40
52.0
 40
52.0
 40
52.0
 10
375.9576412948997
 20
-236.566568829747
 10
375.3972185172617
 20
-238.668348273666
 10
374.6977307396589
 20
-240.7329449398165
 10
373.7344357398994
 20
-242.6864871615508
 10
373.2557515733528
 20
-243.6572963279746
 10
372.7125443512663
 20
-244.5998832721831
 10
372.1225587958584
 20
-245.5071924386233
 10
371.4805737960191
 20
-246.494335216154
 10
370.7240418517637
 20
-247.3102749381725
 10
369.8107354631029
 20
-248.0587282713189
 10
365.4454279641939
 20
-251.6361418815356
 10
359.8021476878271
 20
-253.3133885477829
 10
354.3926532447354
 20
-254.5378449363658
 10
351.7123093604048
 20
-255.1446579917691
 10
349.0041755406061
 20
-255.6167452138734
 10
346.2963944985763
 20
-256.0815652137573
 10
343.9515865028417
 20
-256.484084658101
 10
341.5830804701597
 20
-256.8449763246778
 10
339.2660980112674
 20
-257.3945688245403
 10
339.247753567291
 20
-257.402964935649
 10
339.2102971374194
 20
-257.4178874356456
 10
339.1437899588322
 20
-257.4427935467502
 10
339.0599699609706
 20
-257.4740496578538
 10
338.9736452409508
 20
-257.4999788245141
 10
338.8888374653366
 20
-257.5285538245071
 10
338.719292469662
 20
-257.5858449356036
 10
338.5497827517644
 20
-257.6432771578114
 10
338.3803435894205
 20
-257.701026880019
 10
338.0425588758158
 20
-257.8160324355461
 10
337.70512693998
 20
-257.9319904910727
 10
337.3680125041361
 20
-258.048759935488
 10
336.6426661337523
 20
-258.3001141020917
 10
335.9186603188899
 20
-258.5554546575833
 10
335.195959781772
 20
-258.8141818797412
 10
333.7981131507673
 20
-259.3145971573938
 10
332.4048610280099
 20
-259.8279241017096
 10
331.0147318328884
 20
-260.3494707682458
 10
328.3108749179224
 20
-261.3639185457704
 10
325.6191804741506
 20
-262.4100810455084
 10
322.9245850948408
 20
-263.4488352119159
 10
317.8320968914277
 20
-265.4118671558691
 10
312.7239453550808
 20
-267.3614229887154
 10
307.4891465997428
 20
-268.9171377105483
 10
302.4199064512921
 20
-270.4236752101719
 10
297.2204560283856
 20
-271.6026938209882
 10
291.9318939410858
 20
-271.9480632653461
 10
286.5522165950284
 20
-272.2994299319252
 10
281.125393661227
 20
-271.8357388209303
 10
275.9226976828478
 20
-270.402720210177
 10
269.642195065299
 20
-268.6728390994986
 10
263.8498663241847
 20
-265.7971004891062
 10
258.4209692404651
 20
-262.2185579900012
 10
257.3283812127838
 20
-261.4983268790699
 10
257.3399170458229
 20
-259.8866968794729
 10
258.0306206393126
 20
-258.9285524352678
 10
258.3915475745491
 20
-258.4277138242818
 10
258.9020170059704
 20
-258.1630599354596
 10
259.4474114365007
 20
-258.0887296576999
 10
259.3369214393195
 20
-257.864468824423
 10
259.2572289413526
 20
-257.6211227133726
 10
259.2150719979837
 20
-257.3646532689921
 10
259.0097200587782
 20
-256.1149732693043
 10
260.0485447544978
 20
-254.9066388251621
 10
261.2654582680168
 20
-254.7622116029759
 10
262.3203277520953
 20
-254.6370107696743
 10
263.3751685585174
 20
-254.5112807697056
 10
264.4298749338927
 20
-254.3845982697374
 10
272.4026527096774
 20
-253.4269477144208
 10
280.3744003470531
 20
-252.4271402146708
 10
288.2999057004122
 20
-251.1280007705511
 10
291.9154971492436
 20
-250.5354752151438
 10
295.5209491272992
 20
-249.8780032708638
 10
299.1060532025022
 20
-249.1216124377197
 10
300.8243278808876
 20
-248.7591332711436
 10
302.5378753371713
 20
-248.3736177156843
 10
304.2449669602865
 20
-247.9613968824541
 10
304.6962402821068
 20
-247.8524238269258
 10
305.1471332570467
 20
-247.741545771398
 10
305.5974816480031
 20
-247.6287274380931
 10
305.7864999765142
 20
-247.5814199381046
 10
305.9754554790619
 20
-247.5337596603389
 10
306.1642544113214
 20
-247.4857466047954
 10
306.258446075585
 20
-247.4617929936903
 10
306.3525749234118
 20
-247.4362871603634
 10
306.4470410707735
 20
-247.4135329937023
 10
306.4265799601844
 20
-247.4184718825896
 10
306.4099994050519
 20
-247.4224582714776
 10
306.3915138499679
 20
-247.4269385492546
 10
306.3717935726933
 20
-247.4320538270309
 10
306.3521438509724
 20
-247.4373807714742
 10
306.3323882959208
 20
-247.4425666048061
 10
306.1790357998331
 20
-247.4823952159073
 10
305.8248469199804
 20
-247.5634635492201
 10
306.3915138499679
 20
-247.4269385492546
 10
307.1909082740181
 20
-247.2188349381952
 10
307.9887582563364
 20
-247.0046988271377
 10
308.784652400025
 20
-246.7835424383043
 10
315.3451900104295
 20
-244.9602104943158
 10
321.7755173463782
 20
-242.6616516060013
 10
327.9411202446361
 20
-239.7649932733924
 10
329.5079474268853
 20
-239.0289577180208
 10
331.0572499172358
 20
-238.2555277182142
 10
332.587203459438
 20
-237.4456204961938
 10
333.3612684396899
 20
-237.0357985518523
 10
334.1303592534022
 20
-236.6166632741789
 10
334.8943347894671
 20
-236.1883557742862
 10
335.0483575633154
 20
-236.1020663298634
 10
335.7262638049576
 20
-235.6582718855299
 10
335.133623950029
 20
-236.0546529965422
 10
335.2955221383981
 20
-235.9463502187913
 10
335.4758889412971
 20
-235.8584732743685
 10
335.6446578258803
 20
-235.7609302188373
 10
336.0074544832912
 20
-235.5511332744455
 10
336.3690249159075
 20
-235.3391843856095
 10
336.7293789093178
 20
-235.125259941219
 10
339.8534729962822
 20
-233.2707071639044
 10
342.8852098633806
 20
-231.2621316088514
 10
345.8218731217934
 20
-229.123557442719
 10
348.9688624859515
 20
-226.8317718877364
 10
352.0064907417885
 20
-224.3915727216796
 10
354.9433393557087
 20
-221.8366149445408
 10
356.496619910876
 20
-220.4853349448784
 10
358.0218899104946
 20
-219.1019874452242
 10
359.5210190767864
 20
-217.6909116122441
 10
360.3081368543675
 20
-216.9500077235401
 10
361.0873171319502
 20
-216.2008488348389
 10
361.861241020646
 20
-215.4461866128048
 10
361.8800440761967
 20
-215.42777161281
 10
361.8958837984152
 20
-215.4123905017025
 10
361.9104535206334
 20
-215.3981735572614
 10
361.923964909519
 20
-215.3847680017097
 10
361.9385699095154
 20
-215.3704099461572
 10
361.9555737984004
 20
-215.3535471683842
 10
362.0427099094895
 20
-215.2675046684052
 10
362.1299165761343
 20
-215.1816738350933
 10
362.2169468538902
 20
-215.0955607795593
 10
362.3917482427357
 20
-214.9227349462697
 10
362.5661262982471
 20
-214.7494857796459
 10
362.7401868537596
 20
-214.5758838352451
 10
363.1354390758829
 20
-214.1817957797876
 10
363.528645186896
 20
-213.7857674465537
 10
363.9205812979088
 20
-213.3883985577638
 10
364.8427776865673
 20
-212.4532552246644
 10
366.0864957418119
 20
-212.1877546691753
 10
367.2105868526415
 20
-212.9980146689728
 10
367.5003937970142
 20
-213.2068591133652
 10
367.7298051858455
 20
-213.5135641132884
 10
367.8846393524731
 20
-213.8633432798676
 10
368.4151818523404
 20
-214.0033960576101
 10
368.9367990744323
 20
-214.1766099464557
 10
369.4401424076402
 20
-214.3840080019595
 10
373.4875265732946
 20
-216.0516943904316
 10
375.7221268505139
 20
-219.8855068894733
 10
376.5981799058504
 20
-224.0039404995544
 10
377.4696115722991
 20
-228.1006429985307
 10
377.0286393501872
 20
-232.5496293863069
 10
375.9576412948997
 20
-236.566568829747
 97
        1
330
9F
 92
        1
 93
        1
 72
     4
 94
        3
 73
     0
 74
     0
 95
      158
 96
      154
 40
0.0
 40
0.0
 40
0.0
 40
0.0
 40
1.0
 40
1.0
 40
1.0
 40
2.0
 40
2.0
 40
2.0
 40
3.0
 40
3.0
 40
3.0
 40
4.0
 40
4.0
 40
4.0
 40
5.0
 40
5.0
 40
5.0
 40
6.0
 40
6.0
 40
6.0
 40
7.0
 40
7.0
 40
7.0
 40
8.0
 40
8.0
 40
8.0
 40
9.0
 40
9.0
 40
9.0
 40
10.0
 40
10.0
 40
10.0
 40
11.0
 40
11.0
 40
11.0
 40
12.0
 40
12.0
 40
12.0
 40
13.0
 40
13.0
 40
13.0
 40
14.0
 40
14.0
 40
14.0
 40
15.0
 40
15.0
 40
15.0
 40
16.0
 40
16.0
 40
16.0
 40
17.0
 40
17.0
 40
17.0
 40
18.0
 40
18.0
 40
18.0
 40
19.0
 40
19.0
 40
19.0
 40
20.0
 40
20.0
 40
20.0
 40
21.0
 40
21.0
 40
21.0
 40
22.0
 40
22.0
 40
22.0
 40
23.0
 40
23.0
 40
23.0
 40
24.0
 40
24.0
 40
24.0
 40
25.0
 40
25.0
 40
25.0
 40
26.0
 40
26.0
 40
26.0
 40
27.0
 40
27.0
 40
27.0
 40
28.0
 40
28.0
 40
28.0
 40
29.0
 40
29.0
 40
29.0
 40
30.0
 40
30.0
 40
30.0
 40
31.0
 40
31.0
 40
31.0
 40
32.0
 40
32.0
 40
32.0
 40
33.0
 40
33.0
 40
33.0
 40
34.0
 40
34.0
 40
34.0
 40
35.0
 40
35.0
 40
35.0
 40
36.0
 40
36.0
 40
36.0
 40
37.0
 40
37.0
 40
37.0
 40
38.0
 40
38.0
 40
38.0
 40
39.0
 40
39.0
 40
39.0
 40
40.0
 40
40.0
 40
40.0
 40
41.0
 40
41.0
 40
41.0
 40
42.0
 40
42.0
 40
42.0
 40
43.0
 40
43.0
 40
43.0
 40
44.0
 40
44.0
 40
44.0
 40
45.0
 40
45.0
 40
45.0
 40
46.0
 40
46.0
 40
46.0
 40
47.0
 40
47.0
 40
47.0
 40
48.0
 40
48.0
 40
48.0
 40
49.0
 40
49.0
 40
49.0
 40
50.0
 40
50.0
 40
50.0
 40
51.0
 40
51.0
 40
51.0
 40
51.0
 10
371.406031851593
 20
-209.6131824475965
 10
371.2675312960717
 20
-209.5562088364995
 10
371.1277960183295
 20
-209.500787447625
 10
370.9868260183646
 20
-209.4471652254162
 10
370.7486304628687
 20
-209.2170835588069
 10
370.495018518487
 20
-209.0048171699713
 10
370.2280362963318
 20
-208.8122005033528
 10
368.6666771300555
 20
-207.6867335591896
 10
366.7882060194139
 20
-207.1876941148699
 10
364.9383451865433
 20
-207.4071571703707
 10
363.1849337980924
 20
-207.615225503652
 10
361.5623324096091
 20
-208.4308830034478
 10
360.2463301877164
 20
-209.7656177253362
 10
359.8650832433671
 20
-210.1520857807956
 10
359.4819312990183
 20
-210.5380246695876
 10
359.0968390768925
 20
-210.9220232806027
 10
358.9262357436019
 20
-211.0924855027825
 10
358.7574315769771
 20
-211.2598432805181
 10
358.5883804659083
 20
-211.4270599471431
 10
358.5883804659083
 20
-211.4270599471431
 10
358.2568046326581
 20
-211.7538732803948
 10
358.2568046326581
 20
-211.7538732803948
 10
357.4476735217489
 20
-212.5430018913086
 10
356.7037004663796
 20
-213.2565302244636
 10
355.9842101887814
 20
-213.9337577242944
 10
354.5143615780381
 20
-215.3172110572818
 10
353.0245104672993
 20
-216.666515501389
 10
351.5565579754895
 20
-217.9435357788475
 10
348.6517505495972
 20
-220.4709416115491
 10
345.7002000693421
 20
-222.828908277626
 10
342.784385977064
 20
-224.9524541104285
 10
339.9364110497219
 20
-227.0264346654659
 10
337.0130122354151
 20
-228.9560938316502
 10
334.0953284209625
 20
-230.6881974423278
 10
333.7993915832167
 20
-230.8640924422841
 10
333.5034731582843
 20
-231.0379060533514
 10
333.2066812214116
 20
-231.2098852199754
 10
332.8804676186229
 20
-231.3617207754928
 10
332.634828458223
 20
-231.5168724421207
 10
332.4694815179969
 20
-231.6213652198726
 10
332.4195634637149
 20
-231.6530799420866
 10
332.3600851318989
 20
-231.6907213309661
 10
332.3109079109313
 20
-231.7212718865142
 10
331.6045409845078
 20
-232.1165593864151
 10
330.8843451695482
 20
-232.5088482752062
 10
330.1730746321386
 20
-232.8851916084456
 10
328.7241810579919
 20
-233.6521304971425
 10
327.2350002626507
 20
-234.3957507747347
 10
325.7468072450621
 20
-235.0950974412262
 10
320.1474126656924
 20
-237.7253732739022
 10
313.9756361564808
 20
-239.9853735511146
 10
307.4030335463842
 20
-241.8120568839912
 10
306.6705257872942
 20
-242.0156802172741
 10
305.9060210845761
 20
-242.2213143838892
 10
305.129980548819
 20
-242.4233149393941
 10
305.074841383559
 20
-242.437037994946
 10
305.0208663849361
 20
-242.451149106054
 10
304.9671383307512
 20
-242.4657541060503
 10
304.9671383307512
 20
-242.4657541060503
 10
304.5250372309191
 20
-242.5781843837999
 10
304.343215568891
 20
-242.6237632726772
 10
303.9089108577489
 20
-242.7323835504277
 10
303.4722072577789
 20
-242.83987493929
 10
303.0346999242411
 20
-242.9454613281527
 10
301.4282481432581
 20
-243.3334110502775
 10
299.7484615194463
 20
-243.7125766057384
 10
298.0408760074549
 20
-244.0730449389818
 10
294.7569735912342
 20
-244.7657946610309
 10
291.2976700683773
 20
-245.4078854942033
 10
287.465304055038
 20
-246.0360416051574
 10
279.3630217617444
 20
-247.3640735492702
 10
271.0089266970974
 20
-248.3973949379006
 10
263.8144474361994
 20
-249.2614182710183
 10
262.7619702408281
 20
-249.3878891043194
 10
261.7096694343412
 20
-249.5133016042886
 10
260.6574039056312
 20
-249.6381849375905
 10
258.6422027131171
 20
-249.8772977153083
 10
256.7724387269671
 20
-250.9635710483701
 10
255.5276270920582
 20
-252.6183810479565
 10
254.8899812749926
 20
-253.4660707699665
 10
254.446292675201
 20
-254.43151771417
 10
254.2155471586686
 20
-255.438627713918
 10
254.0864304920343
 20
-255.5901457694357
 10
253.962846020868
 20
-255.7475199360634
 10
253.8450182460963
 20
-255.9109618804668
 10
252.6188332773788
 20
-257.6122327133749
 10
252.134222456409
 20
-259.7762068795003
 10
252.5149402244738
 20
-261.8487057678709
 10
252.8731154931138
 20
-263.7979088229396
 10
253.9619993542229
 20
-265.4593510447465
 10
255.5809670906974
 20
-266.526574377813
 10
261.9382341507322
 20
-270.7172568767654
 10
268.1439193774088
 20
-273.6123982649301
 10
274.5526499400228
 20
-275.3772043755999
 10
280.1540553526746
 20
-276.9203602085479
 10
286.1145885339421
 20
-277.4989510417362
 10
292.2681969880616
 20
-277.0968902085034
 10
293.2696977958445
 20
-277.0316263196311
 10
294.2995266584603
 20
-276.936482152988
 10
295.3293907988529
 20
-276.8142799307968
 10
299.4733301375766
 20
-276.3225782642525
 10
303.9316297460581
 20
-275.3573077089384
 10
308.9589598955781
 20
-273.8634349315342
 10
314.1854330955729
 20
-272.3100838208112
 10
319.2163968561112
 20
-270.4083293768424
 10
324.7806547697107
 20
-268.2633699329342
 10
324.7806547697107
 20
-268.2633699329342
 10
326.3304780635048
 20
-267.665270488639
 10
326.3304780635048
 20
-267.665270488639
 10
328.4610088424837
 20
-266.8426632666225
 10
330.6641765640541
 20
-265.992151322391
 10
332.8275156755294
 20
-265.1805154892607
 10
334.3077443608676
 20
-264.6252079893989
 10
335.6513958812639
 20
-264.1317424339671
 10
336.9352952929534
 20
-263.6720024340819
 10
337.6407449971781
 20
-263.4196957674781
 10
338.3482760902386
 20
-263.1699643786519
 10
339.0572182943742
 20
-262.9243957676024
 10
339.3863332484871
 20
-262.8103427120754
 10
339.7149724442601
 20
-262.6974185454367
 10
340.0441493803066
 20
-262.5853410454648
 10
340.0441493803066
 20
-262.5853410454648
 10
340.5645318670305
 20
-262.4091991010646
 10
340.5645318670305
 20
-262.4091991010646
 10
340.6290549209399
 20
-262.3882793788474
 10
340.6932957526344
 20
-262.3670421566305
 10
340.757466028775
 20
-262.3451346566362
 10
342.3806318206979
 20
-261.9733068789514
 10
344.0601009445178
 20
-261.691155212355
 10
345.832103677088
 20
-261.3933754902071
 10
346.2782264434843
 20
-261.3184454902257
 10
346.724208098773
 20
-261.243515490245
 10
347.1693165798746
 20
-261.1672096569307
 10
350.1335230117941
 20
-260.6583629903913
 10
352.8086104673536
 20
-260.1869813238419
 10
355.5317726888948
 20
-259.5706079906628
 10
361.251852687465
 20
-258.2757724354312
 10
367.8101679636027
 20
-256.3694671581298
 10
373.0812676845076
 20
-252.0495974369874
 10
374.4374160175017
 20
-250.9386649372655
 10
375.5387176838933
 20
-249.7187241042372
 10
376.4481435169988
 20
-248.3205246601421
 10
377.1653054612646
 20
-247.217776604862
 10
377.8092307388809
 20
-246.0898049384776
 10
378.3623157387429
 20
-244.9683949387581
 10
379.3806087940434
 20
-242.9035160503855
 10
380.2249118493884
 20
-240.5899993842969
 10
380.9434143492083
 20
-237.8962235516373
 10
382.3571712932993
 20
-232.5930210529632
 10
382.5998824043504
 20
-227.4179827209234
 10
381.645124626811
 20
-222.9302966109343
 10
380.277475738264
 20
-216.4998632792083
 10
376.6410071280619
 20
-211.77024216928
 10
371.406031851593
 20
-209.6131824475965
 97
        1
330
A0
 75
     2
 76
     1
 98
        1
 10
0.0
 20
0.0
450
        0
451
        0
460
0.0
461
0.0
452
        0
462
0.0
453
        0
470

  0
SPLINE
  5
A2
330
7A
100
AcDbEntity
  8
Livello 1
100
AcDbSpline
210
0.0
220
0.0
230
1.0
 70
     9
 71
     3
 72
    35
 73
    31
 74
     0
 42
0.0000000001
 43
0.0000000001
 40
0.0
 40
0.0
 40
0.0
 40
0.0
 40
1.0
 40
1.0
 40
1.0
 40
2.0
 40
2.0
 40
2.0
 40
3.0
 40
3.0
 40
3.0
 40
4.0
 40
4.0
 40
4.0
 40
5.0
 40
5.0
 40
5.0
 40
6.0
 40
6.0
 40
6.0
 40
7.0
 40
7.0
 40
7.0
 40
8.0
 40
8.0
 40
8.0
 40
9.0
 40
9.0
 40
9.0
 40
10.0
 40
10.0
 40
10.0
 40
10.0
 10
-23.70694888296202
 20
-187.4817038420184
 30
0.0
 10
-24.08812527175562
 20
-191.7018432854081
 30
0.0
 10
-24.63986971606224
 20
-195.9050493954684
 30
0.0
 10
-25.35286888255063
 20
-200.081903005535
 30
0.0
 10
-26.54910304891836
 20
-207.0896924482278
 30
0.0
 10
-28.19579915961785
 20
-214.0095696687196
 30
0.0
 10
-30.0404036036011
 20
-220.8726143892265
 30
0.0
 10
-31.89266332536029
 20
-227.764375220837
 30
0.0
 10
-33.92741499151814
 20
-234.605300774682
 30
0.0
 10
-35.84903082437119
 20
-241.477694106297
 30
0.0
 10
-36.20343137983789
 20
-242.7452599393134
 30
0.0
 10
-37.12668610182944
 20
-243.5899157724356
 30
0.0
 10
-38.51800637925946
 20
-243.4421018835837
 30
0.0
 10
-39.67081360119335
 20
-243.319652716948
 30
0.0
 10
-40.81335498979655
 20
-241.9568016061777
 30
0.0
 10
-40.48241415654618
 20
-240.7731263286954
 30
0.0
 10
-39.38682749015345
 20
-236.8548588296754
 30
0.0
 10
-38.25628054599157
 20
-232.9465749417634
 30
0.0
 10
-37.14146749071469
 20
-229.0337402205191
 30
0.0
 10
-35.21004443564193
 20
-222.2548682777699
 30
0.0
 10
-33.33231415833369
 20
-215.4568052239132
 30
0.0
 10
-31.80147026982757
 20
-208.5743930034121
 30
0.0
 10
-30.20254027022728
 20
-201.3860518940977
 30
0.0
 10
-29.00288415941611
 20
-194.1131499514718
 30
0.0
 10
-28.34033221513701
 20
-186.7771713421944
 30
0.0
 10
-28.22250443738875
 20
-185.4718935647433
 30
0.0
 10
-26.87041304883791
 20
-184.6853755093839
 30
0.0
 10
-25.67139193802657
 20
-184.8127282871302
 30
0.0
 10
-24.36106943835428
 20
-184.9519696759845
 30
0.0
 10
-23.59698804965642
 20
-186.2644088423227
 30
0.0
 10
-23.70694888296202
 20
-187.4817038420184
 30
0.0
  0
SPLINE
  5
A3
330
7A
100
AcDbEntity
  8
Livello 1
100
AcDbSpline
210
0.0
220
0.0
230
1.0
 70
     9
 71
     3
 72
    50
 73
    46
 74
     0
 42
0.0000000001
 43
0.0000000001
 40
0.0
 40
0.0
 40
0.0
 40
0.0
 40
1.0
 40
1.0
 40
1.0
 40
2.0
 40
2.0
 40
2.0
 40
3.0
 40
3.0
 40
3.0
 40
4.0
 40
4.0
 40
4.0
 40
5.0
 40
5.0
 40
5.0
 40
6.0
 40
6.0
 40
6.0
 40
7.0
 40
7.0
 40
7.0
 40
8.0
 40
8.0
 40
8.0
 40
9.0
 40
9.0
 40
9.0
 40
10.0
 40
10.0
 40
10.0
 40
11.0
 40
11.0
 40
11.0
 40
12.0
 40
12.0
 40
12.0
 40
13.0
 40
13.0
 40
13.0
 40
14.0
 40
14.0
 40
14.0
 40
15.0
 40
15.0
 40
15.0
 40
15.0
 10
-25.1257152714963
 20
-179.6817166217465
 30
0.0
 10
-25.69135916024376
 20
-179.6216032884279
 30
0.0
 10
-26.26698666009982
 20
-179.6254132884269
 30
0.0
 10
-26.83732249329075
 20
-179.693076066188
 30
0.0
 10
-30.37772971462775
 20
-180.1131638438608
 30
0.0
 10
-33.17112999170727
 20
-182.8974271764977
 30
0.0
 10
-33.47942249163005
 20
-186.3134096756438
 30
0.0
 10
-34.08870499147776
 20
-193.0599671739574
 30
0.0
 10
-35.21879332452868
 20
-200.1727785610681
 30
0.0
 10
-36.83832554634601
 20
-207.4541471703585
 30
0.0
 10
-38.25628054599157
 20
-213.8290885576537
 30
0.0
 10
-39.96880499000793
 20
-220.1261718894129
 30
0.0
 10
-42.10395721169621
 20
-227.6197363319837
 30
0.0
 10
-42.45034971160953
 20
-228.8359024427911
 30
0.0
 10
-42.79836498930031
 20
-230.0515041091537
 30
0.0
 10
-43.14630971143571
 20
-231.2671057755163
 30
0.0
 10
-43.9067574890234
 20
-233.9234871637415
 30
0.0
 10
-44.6929580443822
 20
-236.6700385519438
 30
0.0
 10
-45.45171248863709
 20
-239.3838521623763
 30
0.0
 10
-46.00155193294418
 20
-241.3496357729959
 30
0.0
 10
-45.62552609970467
 20
-243.4965354946813
 30
0.0
 10
-44.41990804445067
 20
-245.2736888275702
 30
0.0
 10
-43.16976943365204
 20
-247.1161060493322
 30
0.0
 10
-41.16712054526374
 20
-248.3496288268017
 30
0.0
 10
-39.06301276801205
 20
-248.573113548968
 30
0.0
 10
-38.46780610149408
 20
-248.6363666045077
 30
0.0
 10
-37.87266999053179
 20
-248.6335796600638
 30
0.0
 10
-37.29436137956532
 20
-248.5649643823033
 30
0.0
 10
-34.21824499144558
 20
-248.1999452157278
 30
0.0
 10
-31.76023054761566
 20
-246.0167446607182
 30
0.0
 10
-30.87962665894675
 20
-242.86707410595
 30
0.0
 10
-30.14831832579613
 20
-240.2514032732703
 30
0.0
 10
-29.38568332598684
 20
-237.5885307739365
 30
0.0
 10
-28.64809554839347
 20
-235.0134999412468
 30
0.0
 10
-27.45006221535974
 20
-230.8307196645146
 30
0.0
 10
-26.21142416011395
 20
-226.5057699433734
 30
0.0
 10
-25.05734693818006
 20
-222.2120410555583
 30
0.0
 10
-22.8855411053898
 20
-214.1317366131339
 30
0.0
 10
-21.36330499465906
 20
-207.3754777259337
 30
0.0
 10
-20.2664836060445
 20
-200.9502655053177
 30
0.0
 10
-19.52790805067353
 20
-196.6230932841774
 30
0.0
 10
-18.95661971748317
 20
-192.2477668963823
 30
0.0
 10
-18.56796443980249
 20
-187.945853564125
 30
0.0
 10
-18.19454916211803
 20
-183.8134852318242
 30
0.0
 10
-21.13622193916041
 20
-180.1061435660844
 30
0.0
 10
-25.1257152714963
 20
-179.6817166217465
 30
0.0
  0
HATCH
  5
A4
330
7A
100
AcDbEntity
  8
Livello 1
 62
   250
440
 33554687
100
AcDbHatch
 10
0.0
 20
0.0
 30
0.0
210
0.0
220
0.0
230
1.0
  2
SOLID
 70
     1
 71
     1
 91
        2
 92
        1
 93
        1
 72
     4
 94
        3
 73
     0
 74
     0
 95
       35
 96
       31
 40
0.0
 40
0.0
 40
0.0
 40
0.0
 40
1.0
 40
1.0
 40
1.0
 40
2.0
 40
2.0
 40
2.0
 40
3.0
 40
3.0
 40
3.0
 40
4.0
 40
4.0
 40
4.0
 40
5.0
 40
5.0
 40
5.0
 40
6.0
 40
6.0
 40
6.0
 40
7.0
 40
7.0
 40
7.0
 40
8.0
 40
8.0
 40
8.0
 40
9.0
 40
9.0
 40
9.0
 40
10.0
 40
10.0
 40
10.0
 40
10.0
 10
-23.70694888296202
 20
-187.4817038420184
 10
-24.08812527175562
 20
-191.7018432854081
 10
-24.63986971606224
 20
-195.9050493954684
 10
-25.35286888255063
 20
-200.081903005535
 10
-26.54910304891836
 20
-207.0896924482278
 10
-28.19579915961785
 20
-214.0095696687196
 10
-30.0404036036011
 20
-220.8726143892265
 10
-31.89266332536029
 20
-227.764375220837
 10
-33.92741499151814
 20
-234.605300774682
 10
-35.84903082437119
 20
-241.477694106297
 10
-36.20343137983789
 20
-242.7452599393134
 10
-37.12668610182944
 20
-243.5899157724356
 10
-38.51800637925946
 20
-243.4421018835837
 10
-39.67081360119335
 20
-243.319652716948
 10
-40.81335498979655
 20
-241.9568016061777
 10
-40.48241415654618
 20
-240.7731263286954
 10
-39.38682749015345
 20
-236.8548588296754
 10
-38.25628054599157
 20
-232.9465749417634
 10
-37.14146749071469
 20
-229.0337402205191
 10
-35.21004443564193
 20
-222.2548682777699
 10
-33.33231415833369
 20
-215.4568052239132
 10
-31.80147026982757
 20
-208.5743930034121
 10
-30.20254027022728
 20
-201.3860518940977
 10
-29.00288415941611
 20
-194.1131499514718
 10
-28.34033221513701
 20
-186.7771713421944
 10
-28.22250443738875
 20
-185.4718935647433
 10
-26.87041304883791
 20
-184.6853755093839
 10
-25.67139193802657
 20
-184.8127282871302
 10
-24.36106943835428
 20
-184.9519696759845
 10
-23.59698804965642
 20
-186.2644088423227
 10
-23.70694888296202
 20
-187.4817038420184
 97
        1
330
A2
 92
        1
 93
        1
 72
     4
 94
        3
 73
     0
 74
     0
 95
       50
 96
       46
 40
0.0
 40
0.0
 40
0.0
 40
0.0
 40
1.0
 40
1.0
 40
1.0
 40
2.0
 40
2.0
 40
2.0
 40
3.0
 40
3.0
 40
3.0
 40
4.0
 40
4.0
 40
4.0
 40
5.0
 40
5.0
 40
5.0
 40
6.0
 40
6.0
 40
6.0
 40
7.0
 40
7.0
 40
7.0
 40
8.0
 40
8.0
 40
8.0
 40
9.0
 40
9.0
 40
9.0
 40
10.0
 40
10.0
 40
10.0
 40
11.0
 40
11.0
 40
11.0
 40
12.0
 40
12.0
 40
12.0
 40
13.0
 40
13.0
 40
13.0
 40
14.0
 40
14.0
 40
14.0
 40
15.0
 40
15.0
 40
15.0
 40
15.0
 10
-25.1257152714963
 20
-179.6817166217465
 10
-25.69135916024376
 20
-179.6216032884279
 10
-26.26698666009982
 20
-179.6254132884269
 10
-26.83732249329075
 20
-179.693076066188
 10
-30.37772971462775
 20
-180.1131638438608
 10
-33.17112999170727
 20
-182.8974271764977
 10
-33.47942249163005
 20
-186.3134096756438
 10
-34.08870499147776
 20
-193.0599671739574
 10
-35.21879332452868
 20
-200.1727785610681
 10
-36.83832554634601
 20
-207.4541471703585
 10
-38.25628054599157
 20
-213.8290885576537
 10
-39.96880499000793
 20
-220.1261718894129
 10
-42.10395721169621
 20
-227.6197363319837
 10
-42.45034971160953
 20
-228.8359024427911
 10
-42.79836498930031
 20
-230.0515041091537
 10
-43.14630971143571
 20
-231.2671057755163
 10
-43.9067574890234
 20
-233.9234871637415
 10
-44.6929580443822
 20
-236.6700385519438
 10
-45.45171248863709
 20
-239.3838521623763
 10
-46.00155193294418
 20
-241.3496357729959
 10
-45.62552609970467
 20
-243.4965354946813
 10
-44.41990804445067
 20
-245.2736888275702
 10
-43.16976943365204
 20
-247.1161060493322
 10
-41.16712054526374
 20
-248.3496288268017
 10
-39.06301276801205
 20
-248.573113548968
 10
-38.46780610149408
 20
-248.6363666045077
 10
-37.87266999053179
 20
-248.6335796600638
 10
-37.29436137956532
 20
-248.5649643823033
 10
-34.21824499144558
 20
-248.1999452157278
 10
-31.76023054761566
 20
-246.0167446607182
 10
-30.87962665894675
 20
-242.86707410595
 10
-30.14831832579613
 20
-240.2514032732703
 10
-29.38568332598684
 20
-237.5885307739365
 10
-28.64809554839347
 20
-235.0134999412468
 10
-27.45006221535974
 20
-230.8307196645146
 10
-26.21142416011395
 20
-226.5057699433734
 10
-25.05734693818006
 20
-222.2120410555583
 10
-22.8855411053898
 20
-214.1317366131339
 10
-21.36330499465906
 20
-207.3754777259337
 10
-20.2664836060445
 20
-200.9502655053177
 10
-19.52790805067353
 20
-196.6230932841774
 10
-18.95661971748317
 20
-192.2477668963823
 10
-18.56796443980249
 20
-187.945853564125
 10
-18.19454916211803
 20
-183.8134852318242
 10
-21.13622193916041
 20
-180.1061435660844
 10
-25.1257152714963
 20
-179.6817166217465
 97
        1
330
A3
 75
     2
 76
     1
 98
        1
 10
0.0
 20
0.0
450
        0
451
        0
460
0.0
461
0.0
452
        0
462
0.0
453
        0
470

  0
ENDBLK
  5
7D
330
7A
100
AcDbEntity
  8
0
100
AcDbBlockEnd
  0
ENDSEC
  0
SECTION
  2
ENTITIES
  0
LINE
  5
79
330
70
100
AcDbEntity
  8
Livello 1
 62
   250
370
   211
100
AcDbLine
 10
-2910.053375383598
 20
1352.112872717527
 30
0.0
 11
3120.053519775543
 21
1352.112872717527
 31
0.0
  0
INSERT
  5
7B
330
70
100
AcDbEntity
  8
Livello 1
100
AcDbBlockReference
  2
Block_0
 10
0.0
 20
0.0
 30
0.0
  0
ENDSEC
  0
SECTION
  2
OBJECTS
  0
DICTIONARY
  5
C
330
0
100
AcDbDictionary
281
     1
  3
ACAD_COLOR
350
63
  3
ACAD_DETAILVIEWSTYLE
350
6A
  3
ACAD_GROUP
350
D
  3
ACAD_LAYOUT
350
62
  3
ACAD_MATERIAL
350
10
  3
ACAD_MLEADERSTYLE
350
66
  3
ACAD_MLINESTYLE
350
5F
  3
ACAD_PLOTSETTINGS
350
61
  3
ACAD_PLOTSTYLENAME
350
E
  3
ACAD_SCALELIST
350
42
  3
ACAD_SECTIONVIEWSTYLE
350
68
  3
ACAD_TABLESTYLE
350
64
  3
ACAD_VISUALSTYLE
350
29
  3
ACDB_RECOMPOSE_DATA
350
B2
  3
AcDbVariableDictionary
350
A5
  0
DICTIONARY
  5
63
102
{ACAD_REACTORS
330
C
102
}
330
C
100
AcDbDictionary
281
     1
  0
DICTIONARY
  5
6A
102
{ACAD_REACTORS
330
C
102
}
330
C
100
AcDbDictionary
281
     1
  3
Imperial24
350
6B
  0
DICTIONARY
  5
D
102
{ACAD_REACTORS
330
C
102
}
330
C
100
AcDbDictionary
281
     1
  0
DICTIONARY
  5
62
102
{ACAD_REACTORS
330
C
102
}
330
C
100
AcDbDictionary
281
     1
  3
Layout1
350
6F
  3
Layout2
350
77
  3
Model
350
73
  0
DICTIONARY
  5
10
102
{ACAD_REACTORS
330
C
102
}
330
C
100
AcDbDictionary
281
     1
  3
ByBlock
350
19
  3
ByLayer
350
11
  3
Global
350
21
  0
DICTIONARY
  5
66
102
{ACAD_REACTORS
330
C
102
}
330
C
100
AcDbDictionary
281
     1
  3
Standard
350
67
  0
DICTIONARY
  5
5F
102
{ACAD_REACTORS
330
C
102
}
330
C
100
AcDbDictionary
281
     1
  3
Standard
350
60
  0
DICTIONARY
  5
61
102
{ACAD_REACTORS
330
C
102
}
330
C
100
AcDbDictionary
281
     1
  0
ACDBDICTIONARYWDFLT
  5
E
102
{ACAD_REACTORS
330
C
102
}
330
C
100
AcDbDictionary
281
     1
  3
Normal
350
F
100
AcDbDictionaryWithDefault
340
F
  0
DICTIONARY
  5
42
102
{ACAD_REACTORS
330
C
102
}
330
C
100
AcDbDictionary
281
     1
  3
A0
350
43
  3
A1
350
44
  3
A2
350
45
  3
A3
350
46
  3
A4
350
47
  3
A5
350
48
  3
A6
350
49
  3
A7
350
4A
  3
A8
350
4B
  3
A9
350
4C
  3
B0
350
4D
  3
B1
350
4E
  3
B2
350
4F
  3
B3
350
50
  3
B4
350
51
  3
B5
350
52
  3
B6
350
53
  0
DICTIONARY
  5
68
102
{ACAD_REACTORS
330
C
102
}
330
C
100
AcDbDictionary
281
     1
  3
Imperial24
350
69
  0
DICTIONARY
  5
64
102
{ACAD_REACTORS
330
C
102
}
330
C
100
AcDbDictionary
281
     1
  3
Standard
350
65
  0
DICTIONARY
  5
29
102
{ACAD_REACTORS
330
C
102
}
330
C
100
AcDbDictionary
281
     1
  3
2dWireframe
350
2F
  3
Basic
350
2E
  3
Brighten
350
35
  3
ColorChange
350
39
  3
Conceptual
350
32
  3
Dim
350
34
  3
EdgeColorOff
350
41
  3
Facepattern
350
38
  3
Flat
350
2A
  3
FlatWithEdges
350
2B
  3
Gouraud
350
2C
  3
GouraudWithEdges
350
2D
  3
Hidden
350
31
  3
JitterOff
350
3F
  3
Linepattern
350
37
  3
OverhangOff
350
40
  3
Realistic
350
33
  3
Shaded
350
3E
  3
Shaded with edges
350
3D
  3
Shades of Gray
350
3A
  3
Sketchy
350
3B
  3
Thicken
350
36
  3
Wireframe
350
30
  3
X-Ray
350
3C
  0
XRECORD
  5
B2
102
{ACAD_REACTORS
330
C
102
}
330
C
100
AcDbXrecord
280
     1
 90
        1
330
65
  0
DICTIONARY
  5
A5
102
{ACAD_REACTORS
330
C
102
}
330
C
100
AcDbDictionary
281
     1
  3
CANNOSCALE
350
AB
  3
CMLEADERSTYLE
350
A7
  3
CTABLESTYLE
350
A6
  3
CVIEWDETAILSTYLE
350
A8
  3
CVIEWSECTIONSTYLE
350
A9
  3
LAYEREVAL
350
AD
  3
LAYERNOTIFY
350
AE
  3
LIGHTINGUNITS
350
AC
  3
MSLTSCALE
350
AA
  3
XCLIPFRAME
350
AF
  0
ACDBDETAILVIEWSTYLE
  5
6B
102
{ACAD_XDICTIONARY
360
EC
102
}
102
{ACAD_REACTORS
330
6A
102
}
330
6A
100
AcDbModelDocViewStyle
 70
     0
  3
Imperial24
290
     0
100
AcDbDetailViewStyle
 70
     0
 71
     0
 90
        3
 71
     1
340
55
 62
   256
 40
0.24
340
0
 62
   256
 40
0.24
300

 40
0.36
280
     3
 71
     2
340
5D
 90
       25
 62
   256
 71
     3
340
55
 62
   256
 40
0.24
 90
        1
 40
0.75
 90
        1
300
%<\AcVar ViewType \f "%tc1">% %<\AcVar ViewDetailId>%\PSCALE %<\AcVar ViewScale \f "%sn">%
 71
     4
340
5D
 90
       25
 62
   256
340
5D
 90
       25
 62
   256
280
     0
  0
LAYOUT
  5
6F
102
{ACAD_REACTORS
330
62
102
}
330
62
100
AcDbPlotSettings
  1

  2

  4

  6

 40
0.0
 41
0.0
 42
0.0
 43
0.0
 44
0.0
 45
0.0
 46
0.0
 47
0.0
 48
0.0
 49
0.0
140
0.0
141
0.0
142
1.0
143
1.0
 70
   688
 72
     0
 73
     0
 74
     5
  7

 75
    16
147
1.0
 76
     0
 77
     2
 78
   300
148
0.0
149
0.0
100
AcDbLayout
  1
Layout1
 70
     1
 71
     1
 10
0.0
 20
0.0
 11
12.0
 21
9.0
 12
0.0
 22
0.0
 32
0.0
 14
0.0
 24
0.0
 34
0.0
 15
0.0
 25
0.0
 35
0.0
146
0.0
 13
0.0
 23
0.0
 33
0.0
 16
1.0
 26
0.0
 36
0.0
 17
0.0
 27
1.0
 37
0.0
 76
     0
330
6C
  0
LAYOUT
  5
77
102
{ACAD_REACTORS
330
62
102
}
330
62
100
AcDbPlotSettings
  1

  2

  4

  6

 40
0.0
 41
0.0
 42
0.0
 43
0.0
 44
0.0
 45
0.0
 46
0.0
 47
0.0
 48
0.0
 49
0.0
140
0.0
141
0.0
142
1.0
143
1.0
 70
   688
 72
     0
 73
     0
 74
     5
  7

 75
    16
147
1.0
 76
     0
 77
     2
 78
   300
148
0.0
149
0.0
100
AcDbLayout
  1
Layout2
 70
     1
 71
     2
 10
0.0
 20
0.0
 11
12.0
 21
9.0
 12
0.0
 22
0.0
 32
0.0
 14
0.0
 24
0.0
 34
0.0
 15
0.0
 25
0.0
 35
0.0
146
0.0
 13
0.0
 23
0.0
 33
0.0
 16
1.0
 26
0.0
 36
0.0
 17
0.0
 27
1.0
 37
0.0
 76
     0
330
74
  0
LAYOUT
  5
73
102
{ACAD_REACTORS
330
62
102
}
330
62
100
AcDbPlotSettings
  1

  2

  4

  6

 40
0.0
 41
0.0
 42
0.0
 43
0.0
 44
0.0
 45
0.0
 46
0.0
 47
0.0
 48
0.0
 49
0.0
140
0.0
141
0.0
142
1.0
143
1.0
 70
  1712
 72
     0
 73
     0
 74
     0
  7

 75
     0
147
1.0
 76
     0
 77
     2
 78
   300
148
0.0
149
0.0
100
AcDbLayout
  1
Model
 70
     1
 71
     0
 10
0.0
 20
0.0
 11
12.0
 21
9.0
 12
0.0
 22
0.0
 32
0.0
 14
0.0
 24
0.0
 34
0.0
 15
0.0
 25
0.0
 35
0.0
146
0.0
 13
0.0
 23
0.0
 33
0.0
 16
1.0
 26
0.0
 36
0.0
 17
0.0
 27
1.0
 37
0.0
 76
     0
330
70
  0
MATERIAL
  5
19
102
{ACAD_XDICTIONARY
360
1A
102
}
102
{ACAD_REACTORS
330
10
102
}
330
10
100
AcDbMaterial
  1
ByBlock
 72
     0
 43
0.0208333333333333
 43
0.0
 43
0.0
 43
0.0
 43
0.0
 43
0.0208333333333333
 43
0.0
 43
0.0
 43
0.0
 43
0.0
 43
1.0
 43
0.0
 43
0.0
 43
0.0
 43
0.0
 43
1.0
 77
     0
 47
0.0208333333333333
 47
0.0
 47
0.0
 47
0.0
 47
0.0
 47
0.0208333333333333
 47
0.0
 47
0.0
 47
0.0
 47
0.0
 47
1.0
 47
0.0
 47
0.0
 47
0.0
 47
0.0
 47
1.0
171
     0
 49
0.0208333333333333
 49
0.0
 49
0.0
 49
0.0
 49
0.0
 49
0.0208333333333333
 49
0.0
 49
0.0
 49
0.0
 49
0.0
 49
1.0
 49
0.0
 49
0.0
 49
0.0
 49
0.0
 49
1.0
175
     0
142
0.0208333333333333
142
0.0
142
0.0
142
0.0
142
0.0
142
0.0208333333333333
142
0.0
142
0.0
142
0.0
142
0.0
142
1.0
142
0.0
142
0.0
142
0.0
142
0.0
142
1.0
179
     0
144
0.0208333333333333
144
0.0
144
0.0
144
0.0
144
0.0
144
0.0208333333333333
144
0.0
144
0.0
144
0.0
144
0.0
144
1.0
144
0.0
144
0.0
144
0.0
144
0.0
144
1.0
147
0.0208333333333333
147
0.0
147
0.0
147
0.0
147
0.0
147
0.0208333333333333
147
0.0
147
0.0
147
0.0
147
0.0
147
1.0
147
0.0
147
0.0
147
0.0
147
0.0
147
1.0
  0
MATERIAL
  5
11
102
{ACAD_XDICTIONARY
360
12
102
}
102
{ACAD_REACTORS
330
10
102
}
330
10
100
AcDbMaterial
  1
ByLayer
 72
     0
 43
0.0208333333333333
 43
0.0
 43
0.0
 43
0.0
 43
0.0
 43
0.0208333333333333
 43
0.0
 43
0.0
 43
0.0
 43
0.0
 43
1.0
 43
0.0
 43
0.0
 43
0.0
 43
0.0
 43
1.0
 77
     0
 47
0.0208333333333333
 47
0.0
 47
0.0
 47
0.0
 47
0.0
 47
0.0208333333333333
 47
0.0
 47
0.0
 47
0.0
 47
0.0
 47
1.0
 47
0.0
 47
0.0
 47
0.0
 47
0.0
 47
1.0
171
     0
 49
0.0208333333333333
 49
0.0
 49
0.0
 49
0.0
 49
0.0
 49
0.0208333333333333
 49
0.0
 49
0.0
 49
0.0
 49
0.0
 49
1.0
 49
0.0
 49
0.0
 49
0.0
 49
0.0
 49
1.0
175
     0
142
0.0208333333333333
142
0.0
142
0.0
142
0.0
142
0.0
142
0.0208333333333333
142
0.0
142
0.0
142
0.0
142
0.0
142
1.0
142
0.0
142
0.0
142
0.0
142
0.0
142
1.0
179
     0
144
0.0208333333333333
144
0.0
144
0.0
144
0.0
144
0.0
144
0.0208333333333333
144
0.0
144
0.0
144
0.0
144
0.0
144
1.0
144
0.0
144
0.0
144
0.0
144
0.0
144
1.0
147
0.0208333333333333
147
0.0
147
0.0
147
0.0
147
0.0
147
0.0208333333333333
147
0.0
147
0.0
147
0.0
147
0.0
147
1.0
147
0.0
147
0.0
147
0.0
147
0.0
147
1.0
  0
MATERIAL
  5
21
102
{ACAD_XDICTIONARY
360
22
102
}
102
{ACAD_REACTORS
330
10
102
}
330
10
100
AcDbMaterial
  1
Global
 72
     0
 43
0.0208333333333333
 43
0.0
 43
0.0
 43
0.0
 43
0.0
 43
0.0208333333333333
 43
0.0
 43
0.0
 43
0.0
 43
0.0
 43
1.0
 43
0.0
 43
0.0
 43
0.0
 43
0.0
 43
1.0
 77
     0
 47
0.0208333333333333
 47
0.0
 47
0.0
 47
0.0
 47
0.0
 47
0.0208333333333333
 47
0.0
 47
0.0
 47
0.0
 47
0.0
 47
1.0
 47
0.0
 47
0.0
 47
0.0
 47
0.0
 47
1.0
171
     0
 49
0.0208333333333333
 49
0.0
 49
0.0
 49
0.0
 49
0.0
 49
0.0208333333333333
 49
0.0
 49
0.0
 49
0.0
 49
0.0
 49
1.0
 49
0.0
 49
0.0
 49
0.0
 49
0.0
 49
1.0
175
     0
142
0.0208333333333333
142
0.0
142
0.0
142
0.0
142
0.0
142
0.0208333333333333
142
0.0
142
0.0
142
0.0
142
0.0
142
1.0
142
0.0
142
0.0
142
0.0
142
0.0
142
1.0
179
     0
144
0.0208333333333333
144
0.0
144
0.0
144
0.0
144
0.0
144
0.0208333333333333
144
0.0
144
0.0
144
0.0
144
0.0
144
1.0
144
0.0
144
0.0
144
0.0
144
0.0
144
1.0
147
0.0208333333333333
147
0.0
147
0.0
147
0.0
147
0.0
147
0.0208333333333333
147
0.0
147
0.0
147
0.0
147
0.0
147
1.0
147
0.0
147
0.0
147
0.0
147
0.0
147
1.0
  0
MLEADERSTYLE
  5
67
102
{ACAD_XDICTIONARY
360
E8
102
}
102
{ACAD_REACTORS
330
66
102
}
330
66
100
AcDbMLeaderStyle
170
     2
171
     1
172
     0
 90
        2
 40
0.0
 41
0.0
173
     1
 91
-1056964608
340
5B
 92
       -2
290
     1
 42
0.09
291
     1
 43
0.36
  3
Standard
 44
0.18
300

342
55
174
     1
178
     6
175
     1
176
     0
 93
-1056964608
 45
0.18
292
     0
297
     0
 46
0.18
 94
-1056964608
 47
1.0
 49
1.0
140
1.0
293
     1
141
0.0
294
     1
177
     0
142
1.0
295
     0
296
     0
143
0.125
1001
ACAD_MLEADERVER
1070
     2
  0
MLINESTYLE
  5
60
102
{ACAD_REACTORS
330
5F
102
}
330
5F
100
AcDbMlineStyle
  2
STANDARD
 70
     0
  3

 62
   256
 51
90.0
 52
90.0
 71
     2
 49
0.5
 62
   256
  6
BYLAYER
 49
-0.5
 62
   256
  6
BYLAYER
  0
ACDBPLACEHOLDER
  5
F
102
{ACAD_REACTORS
330
E
102
}
330
E
  0
SCALE
  5
43
102
{ACAD_REACTORS
330
42
102
}
330
42
100
AcDbScale
 70
     0
300
1:1
140
1.0
141
1.0
290
     1
  0
SCALE
  5
44
102
{ACAD_REACTORS
330
42
102
}
330
42
100
AcDbScale
 70
     0
300
1/128" = 1'-0"
140
0.0078125
141
12.0
290
     0
  0
SCALE
  5
45
102
{ACAD_REACTORS
330
42
102
}
330
42
100
AcDbScale
 70
     0
300
1/64" = 1'-0"
140
0.015625
141
12.0
290
     0
  0
SCALE
  5
46
102
{ACAD_REACTORS
330
42
102
}
330
42
100
AcDbScale
 70
     0
300
1/32" = 1'-0"
140
0.03125
141
12.0
290
     0
  0
SCALE
  5
47
102
{ACAD_REACTORS
330
42
102
}
330
42
100
AcDbScale
 70
     0
300
1/16" = 1'-0"
140
0.0625
141
12.0
290
     0
  0
SCALE
  5
48
102
{ACAD_REACTORS
330
42
102
}
330
42
100
AcDbScale
 70
     0
300
3/32" = 1'-0"
140
0.09375
141
12.0
290
     0
  0
SCALE
  5
49
102
{ACAD_REACTORS
330
42
102
}
330
42
100
AcDbScale
 70
     0
300
1/8" = 1'-0"
140
0.125
141
12.0
290
     0
  0
SCALE
  5
4A
102
{ACAD_REACTORS
330
42
102
}
330
42
100
AcDbScale
 70
     0
300
3/16" = 1'-0"
140
0.1875
141
12.0
290
     0
  0
SCALE
  5
4B
102
{ACAD_REACTORS
330
42
102
}
330
42
100
AcDbScale
 70
     0
300
1/4" = 1'-0"
140
0.25
141
12.0
290
     0
  0
SCALE
  5
4C
102
{ACAD_REACTORS
330
42
102
}
330
42
100
AcDbScale
 70
     0
300
3/8" = 1'-0"
140
0.375
141
12.0
290
     0
  0
SCALE
  5
4D
102
{ACAD_REACTORS
330
42
102
}
330
42
100
AcDbScale
 70
     0
300
1/2" = 1'-0"
140
0.5
141
12.0
290
     0
  0
SCALE
  5
4E
102
{ACAD_REACTORS
330
42
102
}
330
42
100
AcDbScale
 70
     0
300
3/4" = 1'-0"
140
0.75
141
12.0
290
     0
  0
SCALE
  5
4F
102
{ACAD_REACTORS
330
42
102
}
330
42
100
AcDbScale
 70
     0
300
1" = 1'-0"
140
1.0
141
12.0
290
     0
  0
SCALE
  5
50
102
{ACAD_REACTORS
330
42
102
}
330
42
100
AcDbScale
 70
     0
300
1-1/2" = 1'-0"
140
1.5
141
12.0
290
     0
  0
SCALE
  5
51
102
{ACAD_REACTORS
330
42
102
}
330
42
100
AcDbScale
 70
     0
300
3" = 1'-0"
140
3.0
141
12.0
290
     0
  0
SCALE
  5
52
102
{ACAD_REACTORS
330
42
102
}
330
42
100
AcDbScale
 70
     0
300
6" = 1'-0"
140
6.0
141
12.0
290
     0
  0
SCALE
  5
53
102
{ACAD_REACTORS
330
42
102
}
330
42
100
AcDbScale
 70
     0
300
1'-0" = 1'-0"
140
12.0
141
12.0
290
     0
  0
ACDBSECTIONVIEWSTYLE
  5
69
102
{ACAD_XDICTIONARY
360
EA
102
}
102
{ACAD_REACTORS
330
68
102
}
330
68
100
AcDbModelDocViewStyle
 70
     0
  3
Imperial24
290
     0
100
AcDbSectionViewStyle
 70
     0
 71
     0
 90
       78
 71
     1
340
55
 62
   256
 40
0.24
340
0
340
0
 62
   256
 40
0.24
300
I, O, Q, S, X, Z
 40
0.48
 90
        3
 40
0.18
 90
        1
 71
     2
340
5D
 90
       25
 62
   256
340
5D
 90
       50
 62
   256
 40
0.24
 40
0.0
 40
0.24
 71
     3
340
55
 62
   256
 40
0.24
 90
        1
 40
0.75
 90
        1
300
%<\AcVar ViewType \f "%tc1">% %<\AcVar ViewSectionStartId>%-%<\AcVar ViewSectionEndId>%\PSCALE %<\AcVar ViewScale \f "%sn">%
 71
     4
 62
   256
 62
   257
300
ANSI31
 40
1.0
 90
        0
290
     0
290
     0
 90
        6
 40
0.0
 40
1.570796326794896
 40
0.2617993877991494
 40
1.308996938995747
 40
-0.2617993877991494
 40
1.832595714594046
  0
TABLESTYLE
  5
65
102
{ACAD_XDICTIONARY
360
B0
102
}
102
{ACAD_REACTORS
330
64
102
}
330
64
100
AcDbTableStyle
  3
Standard
 70
     0
 71
     0
 40
0.06
 41
0.06
280
     0
281
     0
  7
Standard
140
0.18
170
     2
 62
     0
 63
     7
283
     0
274
    -2
284
     1
 64
     0
275
    -2
285
     1
 65
     0
276
    -2
286
     1
 66
     0
277
    -2
287
     1
 67
     0
278
    -2
288
     1
 68
     0
279
    -2
289
     1
 69
     0
  7
Standard
140
0.25
170
     5
 62
     0
 63
     7
283
     0
274
    -2
284
     1
 64
     0
275
    -2
285
     1
 65
     0
276
    -2
286
     1
 66
     0
277
    -2
287
     1
 67
     0
278
    -2
288
     1
 68
     0
279
    -2
289
     1
 69
     0
  7
Standard
140
0.18
170
     5
 62
     0
 63
     7
283
     0
274
    -2
284
     1
 64
     0
275
    -2
285
     1
 65
     0
276
    -2
286
     1
 66
     0
277
    -2
287
     1
 67
     0
278
    -2
288
     1
 68
     0
279
    -2
289
     1
 69
     0
  0
VISUALSTYLE
  5
2F
102
{ACAD_XDICTIONARY
360
C0
102
}
102
{ACAD_REACTORS
330
29
102
}
330
29
100
AcDbVisualStyle
  2
2dWireframe
 70
     4
 71
     0
 72
     2
 73
     0
 90
        0
 40
-0.6
 41
-30.0
 62
     5
 63
     7
421
 16777215
 74
     1
 91
        4
 64
     7
 65
   257
 75
     1
175
     1
 42
1.0
 92
        0
 66
   257
 43
1.0
 76
     1
 77
     6
 78
     2
 67
     7
 79
     5
170
     0
171
     0
290
     0
174
     0
 93
        1
 44
0.0
173
     0
291
     0
 45
0.0
1001
ACAD
1000
AcDbSavedByObjectVersion
1070
     0
  0
VISUALSTYLE
  5
2E
102
{ACAD_XDICTIONARY
360
BE
102
}
102
{ACAD_REACTORS
330
29
102
}
330
29
100
AcDbVisualStyle
  2
Basic
 70
     7
 71
     1
 72
     0
 73
     1
 90
        0
 40
-0.6
 41
-30.0
 62
     5
 63
     7
421
 16777215
 74
     0
 91
        4
 64
     7
 65
   257
 75
     1
175
     1
 42
1.0
 92
        8
 66
     7
 43
1.0
 76
     1
 77
     6
 78
     2
 67
     7
 79
     5
170
     0
171
     0
290
     0
174
     0
 93
        1
 44
0.0
173
     0
291
     1
 45
0.0
1001
ACAD
1000
AcDbSavedByObjectVersion
1070
     0
  0
VISUALSTYLE
  5
35
102
{ACAD_XDICTIONARY
360
CC
102
}
102
{ACAD_REACTORS
330
29
102
}
330
29
100
AcDbVisualStyle
  2
Brighten
 70
    12
 71
     2
 72
     2
 73
     0
 90
        0
 40
-0.6
 41
-30.0
 62
     5
 63
     7
421
 16777215
 74
     1
 91
        4
 64
     7
 65
   257
 75
     1
175
     1
 42
1.0
 92
        8
 66
     7
 43
1.0
 76
     1
 77
     6
 78
     2
 67
     7
 79
     5
170
     0
171
     0
290
     0
174
     0
 93
        1
 44
50.0
173
     0
291
     1
 45
0.0
1001
ACAD
1000
AcDbSavedByObjectVersion
1070
     0
  0
VISUALSTYLE
  5
39
102
{ACAD_XDICTIONARY
360
D4
102
}
102
{ACAD_REACTORS
330
29
102
}
330
29
100
AcDbVisualStyle
  2
ColorChange
 70
    16
 71
     2
 72
     2
 73
     3
 90
        0
 40
-0.6
 41
-30.0
 62
     5
 63
     8
421
  8421504
 74
     1
 91
        4
 64
     7
 65
   257
 75
     1
175
     1
 42
1.0
 92
        8
 66
     8
424
  8421504
 43
1.0
 76
     1
 77
     6
 78
     2
 67
     7
 79
     5
170
     0
171
     0
290
     0
174
     0
 93
        1
 44
0.0
173
     0
291
     1
 45
0.0
1001
ACAD
1000
AcDbSavedByObjectVersion
1070
     0
  0
VISUALSTYLE
  5
32
102
{ACAD_XDICTIONARY
360
C6
102
}
102
{ACAD_REACTORS
330
29
102
}
330
29
100
AcDbVisualStyle
  2
Conceptual
 70
     9
 71
     3
 72
     2
 73
     0
 90
        0
 40
-0.6
 41
-30.0
 62
     5
 63
     7
421
 16777215
 74
     2
 91
        2
 64
     7
 65
   257
 75
     1
175
     1
 42
179.0
 92
        8
 66
     7
 43
1.0
 76
     1
 77
     6
 78
     2
 67
     7
 79
     3
170
     0
171
     0
290
     0
174
     0
 93
        1
 44
0.0
173
     0
291
     0
 45
0.0
1001
ACAD
1000
AcDbSavedByObjectVersion
1070
     0
  0
VISUALSTYLE
  5
34
102
{ACAD_XDICTIONARY
360
CA
102
}
102
{ACAD_REACTORS
330
29
102
}
330
29
100
AcDbVisualStyle
  2
Dim
 70
    11
 71
     2
 72
     2
 73
     0
 90
        0
 40
-0.6
 41
-30.0
 62
     5
 63
     7
421
 16777215
 74
     1
 91
        4
 64
     7
 65
   257
 75
     1
175
     1
 42
1.0
 92
        8
 66
     7
 43
1.0
 76
     1
 77
     6
 78
     2
 67
     7
 79
     5
170
     0
171
     0
290
     0
174
     0
 93
        1
 44
-50.0
173
     0
291
     1
 45
0.0
1001
ACAD
1000
AcDbSavedByObjectVersion
1070
     0
  0
VISUALSTYLE
  5
41
102
{ACAD_XDICTIONARY
360
E4
102
}
102
{ACAD_REACTORS
330
29
102
}
330
29
100
AcDbVisualStyle
  2
EdgeColorOff
 70
    22
 71
     2
 72
     2
 73
     0
 90
        0
 40
-0.6
 41
-30.0
 62
     5
 63
     7
421
 16777215
 74
     1
 91
        4
 64
     7
 65
   257
 75
     1
175
     1
 42
1.0
 92
        8
 66
     7
 43
1.0
 76
     1
 77
     6
 78
     2
 67
     7
 79
     5
170
     0
171
     0
290
     0
174
     0
 93
        1
 44
0.0
173
     0
291
     1
 45
0.0
1001
ACAD
1000
AcDbSavedByObjectVersion
1070
     0
  0
VISUALSTYLE
  5
38
102
{ACAD_XDICTIONARY
360
D2
102
}
102
{ACAD_REACTORS
330
29
102
}
330
29
100
AcDbVisualStyle
  2
Facepattern
 70
    15
 71
     2
 72
     2
 73
     0
 90
        0
 40
-0.6
 41
-30.0
 62
     5
 63
     7
421
 16777215
 74
     1
 91
        4
 64
     7
 65
   257
 75
     1
175
     1
 42
1.0
 92
        8
 66
     7
 43
1.0
 76
     1
 77
     6
 78
     2
 67
     7
 79
     5
170
     0
171
     0
290
     0
174
     0
 93
        1
 44
0.0
173
     0
291
     1
 45
0.0
1001
ACAD
1000
AcDbSavedByObjectVersion
1070
     0
  0
VISUALSTYLE
  5
2A
102
{ACAD_XDICTIONARY
360
B6
102
}
102
{ACAD_REACTORS
330
29
102
}
330
29
100
AcDbVisualStyle
  2
Flat
 70
     0
 71
     2
 72
     1
 73
     1
 90
        2
 40
-0.6
 41
30.0
 62
     5
 63
     7
421
 16777215
 74
     0
 91
        0
 64
     7
 65
   257
 75
     1
175
     1
 42
1.0
 92
        8
 66
     7
 43
1.0
 76
     1
 77
     6
 78
     2
 67
     7
 79
     5
170
     0
171
     0
290
     0
174
     0
 93
       13
 44
0.0
173
     0
291
     1
 45
0.0
1001
ACAD
1000
AcDbSavedByObjectVersion
1070
     0
  0
VISUALSTYLE
  5
2B
102
{ACAD_XDICTIONARY
360
B8
102
}
102
{ACAD_REACTORS
330
29
102
}
330
29
100
AcDbVisualStyle
  2
FlatWithEdges
 70
     1
 71
     2
 72
     1
 73
     1
 90
        2
 40
-0.6
 41
30.0
 62
     5
 63
     7
421
 16777215
 74
     1
 91
        0
 64
     7
 65
   257
 75
     1
175
     1
 42
1.0
 92
        0
 66
   257
 43
1.0
 76
     1
 77
     6
 78
     2
 67
     7
 79
     5
170
     0
171
     0
290
     0
174
     0
 93
       13
 44
0.0
173
     0
291
     1
 45
0.0
1001
ACAD
1000
AcDbSavedByObjectVersion
1070
     0
  0
VISUALSTYLE
  5
2C
102
{ACAD_XDICTIONARY
360
BA
102
}
102
{ACAD_REACTORS
330
29
102
}
330
29
100
AcDbVisualStyle
  2
Gouraud
 70
     2
 71
     2
 72
     2
 73
     1
 90
        2
 40
-0.6
 41
30.0
 62
     5
 63
     7
421
 16777215
 74
     0
 91
        0
 64
     7
 65
   257
 75
     1
175
     1
 42
1.0
 92
        0
 66
     7
 43
1.0
 76
     1
 77
     6
 78
     2
 67
     7
 79
     5
170
     0
171
     0
290
     0
174
     0
 93
       13
 44
0.0
173
     0
291
     1
 45
0.0
1001
ACAD
1000
AcDbSavedByObjectVersion
1070
     0
  0
VISUALSTYLE
  5
2D
102
{ACAD_XDICTIONARY
360
BC
102
}
102
{ACAD_REACTORS
330
29
102
}
330
29
100
AcDbVisualStyle
  2
GouraudWithEdges
 70
     3
 71
     2
 72
     2
 73
     1
 90
        2
 40
-0.6
 41
30.0
 62
     5
 63
     7
421
 16777215
 74
     1
 91
        0
 64
     7
 65
   257
 75
     1
175
     1
 42
1.0
 92
        0
 66
   257
 43
1.0
 76
     1
 77
     6
 78
     2
 67
     7
 79
     5
170
     0
171
     0
290
     0
174
     0
 93
       13
 44
0.0
173
     0
291
     1
 45
0.0
1001
ACAD
1000
AcDbSavedByObjectVersion
1070
     0
  0
VISUALSTYLE
  5
31
102
{ACAD_XDICTIONARY
360
C4
102
}
102
{ACAD_REACTORS
330
29
102
}
330
29
100
AcDbVisualStyle
  2
Hidden
 70
     6
 71
     1
 72
     2
 73
     2
 90
        0
 40
-0.6
 41
-30.0
 62
     5
 63
     7
421
 16777215
 74
     2
 91
        2
 64
     7
 65
   257
 75
     2
175
     1
 42
40.0
 92
        0
 66
   257
 43
1.0
 76
     1
 77
     6
 78
     2
 67
     7
 79
     3
170
     0
171
     0
290
     0
174
     0
 93
        1
 44
0.0
173
     0
291
     0
 45
0.0
1001
ACAD
1000
AcDbSavedByObjectVersion
1070
     0
  0
VISUALSTYLE
  5
3F
102
{ACAD_XDICTIONARY
360
E0
102
}
102
{ACAD_REACTORS
330
29
102
}
330
29
100
AcDbVisualStyle
  2
JitterOff
 70
    20
 71
     2
 72
     2
 73
     0
 90
        0
 40
-0.6
 41
-30.0
 62
     5
 63
     7
421
 16777215
 74
     1
 91
        4
 64
     7
 65
   257
 75
     1
175
     1
 42
1.0
 92
       10
 66
     7
 43
1.0
 76
     1
 77
     6
 78
     2
 67
     7
 79
     5
170
     0
171
     0
290
     0
174
     0
 93
        1
 44
0.0
173
     0
291
     1
 45
0.0
1001
ACAD
1000
AcDbSavedByObjectVersion
1070
     0
  0
VISUALSTYLE
  5
37
102
{ACAD_XDICTIONARY
360
D0
102
}
102
{ACAD_REACTORS
330
29
102
}
330
29
100
AcDbVisualStyle
  2
Linepattern
 70
    14
 71
     2
 72
     2
 73
     0
 90
        0
 40
-0.6
 41
-30.0
 62
     5
 63
     7
421
 16777215
 74
     1
 91
        4
 64
     7
 65
   257
 75
     7
175
     7
 42
1.0
 92
        8
 66
     7
 43
1.0
 76
     1
 77
     6
 78
     2
 67
     7
 79
     5
170
     0
171
     0
290
     0
174
     0
 93
        1
 44
0.0
173
     0
291
     1
 45
0.0
1001
ACAD
1000
AcDbSavedByObjectVersion
1070
     0
  0
VISUALSTYLE
  5
40
102
{ACAD_XDICTIONARY
360
E2
102
}
102
{ACAD_REACTORS
330
29
102
}
330
29
100
AcDbVisualStyle
  2
OverhangOff
 70
    21
 71
     2
 72
     2
 73
     0
 90
        0
 40
-0.6
 41
-30.0
 62
     5
 63
     7
421
 16777215
 74
     1
 91
        4
 64
     7
 65
   257
 75
     1
175
     1
 42
1.0
 92
        9
 66
     7
 43
1.0
 76
     1
 77
     6
 78
     2
 67
     7
 79
     5
170
     0
171
     0
290
     0
174
     0
 93
        1
 44
0.0
173
     0
291
     1
 45
0.0
1001
ACAD
1000
AcDbSavedByObjectVersion
1070
     0
  0
VISUALSTYLE
  5
33
102
{ACAD_XDICTIONARY
360
C8
102
}
102
{ACAD_REACTORS
330
29
102
}
330
29
100
AcDbVisualStyle
  2
Realistic
 70
     8
 71
     2
 72
     3
 73
     0
 90
        2
 40
-0.6
 41
30.0
 62
     5
 63
     7
421
 16777215
 74
     0
 91
        0
 64
     7
 65
   257
 75
     1
175
     1
 42
1.0
 92
        8
 66
   257
 43
1.0
 76
     1
 77
     6
 78
     2
 67
     7
 79
     3
170
     0
171
     0
290
     0
174
     0
 93
       13
 44
0.0
173
     0
291
     0
 45
0.0
1001
ACAD
1000
AcDbSavedByObjectVersion
1070
     0
  0
VISUALSTYLE
  5
3E
102
{ACAD_XDICTIONARY
360
DE
102
}
102
{ACAD_REACTORS
330
29
102
}
330
29
100
AcDbVisualStyle
  2
Shaded
 70
    27
 71
     2
 72
     2
 73
     1
 90
        2
 40
-0.6
 41
30.0
 62
     5
 63
     7
421
 16777215
 74
     0
 91
        4
 64
     7
 65
   257
 75
     1
175
     1
 42
1.0
 92
        8
 66
   257
 43
1.0
 76
     1
 77
     6
 78
     2
 67
     8
425
  7895160
 79
     3
170
     0
171
     0
290
     0
174
     0
 93
        5
 44
0.0
173
     0
291
     0
 45
0.0
1001
ACAD
1000
AcDbSavedByObjectVersion
1070
     0
  0
VISUALSTYLE
  5
3D
102
{ACAD_XDICTIONARY
360
DC
102
}
102
{ACAD_REACTORS
330
29
102
}
330
29
100
AcDbVisualStyle
  2
Shaded with edges
 70
    26
 71
     2
 72
     2
 73
     1
 90
        2
 40
-0.6
 41
30.0
 62
     5
 63
     7
421
 16777215
 74
     1
 91
        2
 64
     7
 65
   257
 75
     2
175
     1
 42
1.0
 92
        8
 66
   257
 43
1.0
 76
     1
 77
     6
 78
     2
 67
     7
 79
     3
170
     0
171
     0
290
     0
174
     0
 93
        5
 44
0.0
173
     0
291
     0
 45
0.0
1001
ACAD
1000
AcDbSavedByObjectVersion
1070
     0
  0
VISUALSTYLE
  5
3A
102
{ACAD_XDICTIONARY
360
D6
102
}
102
{ACAD_REACTORS
330
29
102
}
330
29
100
AcDbVisualStyle
  2
Shades of Gray
 70
    23
 71
     2
 72
     2
 73
     3
 90
        0
 40
-0.6
 41
-30.0
 62
     5
 63
     7
421
 16777215
 74
     2
 91
        2
 64
     7
 65
     7
 75
     1
175
     1
 42
40.0
 92
        8
 66
     7
 43
1.0
 76
     1
 77
     6
 78
     2
 67
     7
 79
     3
170
     0
171
     0
290
     0
174
     0
 93
        1
 44
0.0
173
     0
291
     0
 45
0.0
1001
ACAD
1000
AcDbSavedByObjectVersion
1070
     0
  0
VISUALSTYLE
  5
3B
102
{ACAD_XDICTIONARY
360
D8
102
}
102
{ACAD_REACTORS
330
29
102
}
330
29
100
AcDbVisualStyle
  2
Sketchy
 70
    24
 71
     1
 72
     2
 73
     2
 90
        0
 40
-0.6
 41
-30.0
 62
     5
 63
     7
421
 16777215
 74
     2
 91
        2
 64
     7
 65
     7
 75
     1
175
     1
 42
40.0
 92
       11
 66
     7
 43
1.0
 76
     1
 77
     6
 78
     2
 67
     7
 79
     6
170
     0
171
     0
290
     0
174
     0
 93
        1
 44
0.0
173
     0
291
     0
 45
0.0
1001
ACAD
1000
AcDbSavedByObjectVersion
1070
     0
  0
VISUALSTYLE
  5
36
102
{ACAD_XDICTIONARY
360
CE
102
}
102
{ACAD_REACTORS
330
29
102
}
330
29
100
AcDbVisualStyle
  2
Thicken
 70
    13
 71
     2
 72
     2
 73
     0
 90
        0
 40
-0.6
 41
-30.0
 62
     5
 63
     7
421
 16777215
 74
     1
 91
        4
 64
     7
 65
   257
 75
     1
175
     1
 42
1.0
 92
       12
 66
     7
 43
1.0
 76
     1
 77
     6
 78
     2
 67
     7
 79
     5
170
     0
171
     0
290
     0
174
     0
 93
        1
 44
0.0
173
     0
291
     1
 45
0.0
1001
ACAD
1000
AcDbSavedByObjectVersion
1070
     0
  0
VISUALSTYLE
  5
30
102
{ACAD_XDICTIONARY
360
C2
102
}
102
{ACAD_REACTORS
330
29
102
}
330
29
100
AcDbVisualStyle
  2
Wireframe
 70
     5
 71
     0
 72
     2
 73
     0
 90
        0
 40
-0.6
 41
-30.0
 62
     5
 63
     7
421
 16777215
 74
     1
 91
        4
 64
     7
 65
   257
 75
     1
175
     1
 42
1.0
 92
        0
 66
   257
 43
1.0
 76
     1
 77
     6
 78
     2
 67
     7
 79
     3
170
     0
171
     0
290
     0
174
     0
 93
        1
 44
0.0
173
     0
291
     0
 45
0.0
1001
ACAD
1000
AcDbSavedByObjectVersion
1070
     0
  0
VISUALSTYLE
  5
3C
102
{ACAD_XDICTIONARY
360
DA
102
}
102
{ACAD_REACTORS
330
29
102
}
330
29
100
AcDbVisualStyle
  2
X-Ray
 70
    25
 71
     2
 72
     2
 73
     1
 90
        1
 40
0.5
 41
-30.0
 62
     5
 63
     7
421
 16777215
 74
     1
 91
        0
 64
     7
 65
   257
 75
     1
175
     1
 42
1.0
 92
        8
 66
     7
 43
1.0
 76
     1
 77
     6
 78
     2
 67
     7
 79
     3
170
     0
171
     0
290
     0
174
     0
 93
       13
 44
0.0
173
     0
291
     0
 45
0.0
1001
ACAD
1000
AcDbSavedByObjectVersion
1070
     0
  0
DICTIONARYVAR
  5
AB
102
{ACAD_REACTORS
330
A5
102
}
330
A5
100
DictionaryVariables
280
     0
  1
1:1
  0
DICTIONARYVAR
  5
A7
102
{ACAD_REACTORS
330
A5
102
}
330
A5
100
DictionaryVariables
280
     0
  1
STANDARD
  0
DICTIONARYVAR
  5
A6
102
{ACAD_REACTORS
330
A5
102
}
330
A5
100
DictionaryVariables
280
     0
  1
STANDARD
  0
DICTIONARYVAR
  5
A8
102
{ACAD_REACTORS
330
A5
102
}
330
A5
100
DictionaryVariables
280
     0
  1
Imperial24
  0
DICTIONARYVAR
  5
A9
102
{ACAD_REACTORS
330
A5
102
}
330
A5
100
DictionaryVariables
280
     0
  1
Imperial24
  0
DICTIONARYVAR
  5
AD
102
{ACAD_REACTORS
330
A5
102
}
330
A5
100
DictionaryVariables
280
     0
  1
0
  0
DICTIONARYVAR
  5
AE
102
{ACAD_REACTORS
330
A5
102
}
330
A5
100
DictionaryVariables
280
     0
  1
0
  0
DICTIONARYVAR
  5
AC
102
{ACAD_REACTORS
330
A5
102
}
330
A5
100
DictionaryVariables
280
     0
  1
2
  0
DICTIONARYVAR
  5
AA
102
{ACAD_REACTORS
330
A5
102
}
330
A5
100
DictionaryVariables
280
     0
  1
1
  0
DICTIONARYVAR
  5
AF
102
{ACAD_REACTORS
330
A5
102
}
330
A5
100
DictionaryVariables
280
     0
  1
2
  0
DICTIONARY
  5
EC
330
6B
100
AcDbDictionary
280
     1
281
     1
  3
ACAD_XREC_ROUNDTRIP
360
ED
  0
DICTIONARY
  5
1A
330
19
100
AcDbDictionary
280
     1
281
     1
  3
ACAD_XREC_ROUNDTRIP
360
B4
  3
BUMPTILE
360
1C
  3
DIFFUSETILE
360
1B
  3
OPACITYTILE
360
1F
  3
REFLECTIONTILE
360
1E
  3
REFRACTIONTILE
360
20
  3
SPECULARTILE
360
1D
  0
DICTIONARY
  5
12
330
11
100
AcDbDictionary
280
     1
281
     1
  3
ACAD_XREC_ROUNDTRIP
360
B3
  3
BUMPTILE
360
14
  3
DIFFUSETILE
360
13
  3
OPACITYTILE
360
17
  3
REFLECTIONTILE
360
16
  3
REFRACTIONTILE
360
18
  3
SPECULARTILE
360
15
  0
DICTIONARY
  5
22
330
21
100
AcDbDictionary
280
     1
281
     1
  3
ACAD_XREC_ROUNDTRIP
360
B5
  3
BUMPTILE
360
24
  3
DIFFUSETILE
360
23
  3
OPACITYTILE
360
27
  3
REFLECTIONTILE
360
26
  3
REFRACTIONTILE
360
28
  3
SPECULARTILE
360
25
  0
DICTIONARY
  5
E8
330
67
100
AcDbDictionary
280
     1
281
     1
  3
ACAD_XREC_ROUNDTRIP
360
E9
  0
DICTIONARY
  5
EA
330
69
100
AcDbDictionary
280
     1
281
     1
  3
ACAD_XREC_ROUNDTRIP
360
EB
  0
DICTIONARY
  5
B0
330
65
100
AcDbDictionary
280
     1
281
     1
  3
ACAD_ROUNDTRIP_2008_TABLESTYLE_CELLSTYLEMAP
360
B1
  3
ACAD_XREC_ROUNDTRIP
360
E6
  0
DICTIONARY
  5
C0
330
2F
100
AcDbDictionary
280
     1
281
     1
  3
ACAD_XREC_ROUNDTRIP
360
C1
  0
DICTIONARY
  5
BE
330
2E
100
AcDbDictionary
280
     1
281
     1
  3
ACAD_XREC_ROUNDTRIP
360
BF
  0
DICTIONARY
  5
CC
330
35
100
AcDbDictionary
280
     1
281
     1
  3
ACAD_XREC_ROUNDTRIP
360
CD
  0
DICTIONARY
  5
D4
330
39
100
AcDbDictionary
280
     1
281
     1
  3
ACAD_XREC_ROUNDTRIP
360
D5
  0
DICTIONARY
  5
C6
330
32
100
AcDbDictionary
280
     1
281
     1
  3
ACAD_XREC_ROUNDTRIP
360
C7
  0
DICTIONARY
  5
CA
330
34
100
AcDbDictionary
280
     1
281
     1
  3
ACAD_XREC_ROUNDTRIP
360
CB
  0
DICTIONARY
  5
E4
330
41
100
AcDbDictionary
280
     1
281
     1
  3
ACAD_XREC_ROUNDTRIP
360
E5
  0
DICTIONARY
  5
D2
330
38
100
AcDbDictionary
280
     1
281
     1
  3
ACAD_XREC_ROUNDTRIP
360
D3
  0
DICTIONARY
  5
B6
330
2A
100
AcDbDictionary
280
     1
281
     1
  3
ACAD_XREC_ROUNDTRIP
360
B7
  0
DICTIONARY
  5
B8
330
2B
100
AcDbDictionary
280
     1
281
     1
  3
ACAD_XREC_ROUNDTRIP
360
B9
  0
DICTIONARY
  5
BA
330
2C
100
AcDbDictionary
280
     1
281
     1
  3
ACAD_XREC_ROUNDTRIP
360
BB
  0
DICTIONARY
  5
BC
330
2D
100
AcDbDictionary
280
     1
281
     1
  3
ACAD_XREC_ROUNDTRIP
360
BD
  0
DICTIONARY
  5
C4
330
31
100
AcDbDictionary
280
     1
281
     1
  3
ACAD_XREC_ROUNDTRIP
360
C5
  0
DICTIONARY
  5
E0
330
3F
100
AcDbDictionary
280
     1
281
     1
  3
ACAD_XREC_ROUNDTRIP
360
E1
  0
DICTIONARY
  5
D0
330
37
100
AcDbDictionary
280
     1
281
     1
  3
ACAD_XREC_ROUNDTRIP
360
D1
  0
DICTIONARY
  5
E2
330
40
100
AcDbDictionary
280
     1
281
     1
  3
ACAD_XREC_ROUNDTRIP
360
E3
  0
DICTIONARY
  5
C8
330
33
100
AcDbDictionary
280
     1
281
     1
  3
ACAD_XREC_ROUNDTRIP
360
C9
  0
DICTIONARY
  5
DE
330
3E
100
AcDbDictionary
280
     1
281
     1
  3
ACAD_XREC_ROUNDTRIP
360
DF
  0
DICTIONARY
  5
DC
330
3D
100
AcDbDictionary
280
     1
281
     1
  3
ACAD_XREC_ROUNDTRIP
360
DD
  0
DICTIONARY
  5
D6
330
3A
100
AcDbDictionary
280
     1
281
     1
  3
ACAD_XREC_ROUNDTRIP
360
D7
  0
DICTIONARY
  5
D8
330
3B
100
AcDbDictionary
280
     1
281
     1
  3
ACAD_XREC_ROUNDTRIP
360
D9
  0
DICTIONARY
  5
CE
330
36
100
AcDbDictionary
280
     1
281
     1
  3
ACAD_XREC_ROUNDTRIP
360
CF
  0
DICTIONARY
  5
C2
330
30
100
AcDbDictionary
280
     1
281
     1
  3
ACAD_XREC_ROUNDTRIP
360
C3
  0
DICTIONARY
  5
DA
330
3C
100
AcDbDictionary
280
     1
281
     1
  3
ACAD_XREC_ROUNDTRIP
360
DB
  0
XRECORD
  5
ED
102
{ACAD_REACTORS
330
EC
102
}
330
EC
100
AcDbXrecord
280
     1
102
DISPLAYNAME
  1
Imperial24
102
FLAGS
 90
        0
  0
XRECORD
  5
B4
102
{ACAD_REACTORS
330
1A
102
}
330
1A
100
AcDbXrecord
280
     1
102
MATERIAL
148
0.0
149
0.0
149
0.0
 93
        0
 94
      127
282
     0
 72
     0
 77
     0
171
     0
175
     0
179
     0
273
     0
  0
XRECORD
  5
1C
102
{ACAD_REACTORS
330
1A
102
}
330
1A
100
AcDbXrecord
280
     1
270
     1
271
     1
  0
XRECORD
  5
1B
102
{ACAD_REACTORS
330
1A
102
}
330
1A
100
AcDbXrecord
280
     1
270
     1
271
     1
  0
XRECORD
  5
1F
102
{ACAD_REACTORS
330
1A
102
}
330
1A
100
AcDbXrecord
280
     1
270
     1
271
     1
  0
XRECORD
  5
1E
102
{ACAD_REACTORS
330
1A
102
}
330
1A
100
AcDbXrecord
280
     1
270
     1
271
     1
  0
XRECORD
  5
20
102
{ACAD_REACTORS
330
1A
102
}
330
1A
100
AcDbXrecord
280
     1
270
     1
271
     1
  0
XRECORD
  5
1D
102
{ACAD_REACTORS
330
1A
102
}
330
1A
100
AcDbXrecord
280
     1
270
     1
271
     1
  0
XRECORD
  5
B3
102
{ACAD_REACTORS
330
12
102
}
330
12
100
AcDbXrecord
280
     1
102
MATERIAL
148
0.0
149
0.0
149
0.0
 93
        0
 94
      127
282
     0
 72
     0
 77
     0
171
     0
175
     0
179
     0
273
     0
  0
XRECORD
  5
14
102
{ACAD_REACTORS
330
12
102
}
330
12
100
AcDbXrecord
280
     1
270
     1
271
     1
  0
XRECORD
  5
13
102
{ACAD_REACTORS
330
12
102
}
330
12
100
AcDbXrecord
280
     1
270
     1
271
     1
  0
XRECORD
  5
17
102
{ACAD_REACTORS
330
12
102
}
330
12
100
AcDbXrecord
280
     1
270
     1
271
     1
  0
XRECORD
  5
16
102
{ACAD_REACTORS
330
12
102
}
330
12
100
AcDbXrecord
280
     1
270
     1
271
     1
  0
XRECORD
  5
18
102
{ACAD_REACTORS
330
12
102
}
330
12
100
AcDbXrecord
280
     1
270
     1
271
     1
  0
XRECORD
  5
15
102
{ACAD_REACTORS
330
12
102
}
330
12
100
AcDbXrecord
280
     1
270
     1
271
     1
  0
XRECORD
  5
B5
102
{ACAD_REACTORS
330
22
102
}
330
22
100
AcDbXrecord
280
     1
102
MATERIAL
148
0.0
149
0.0
149
0.0
 93
        0
 94
      127
282
     0
 72
     0
 77
     0
171
     0
175
     0
179
     0
273
     0
  0
XRECORD
  5
24
102
{ACAD_REACTORS
330
22
102
}
330
22
100
AcDbXrecord
280
     1
270
     1
271
     1
  0
XRECORD
  5
23
102
{ACAD_REACTORS
330
22
102
}
330
22
100
AcDbXrecord
280
     1
270
     1
271
     1
  0
XRECORD
  5
27
102
{ACAD_REACTORS
330
22
102
}
330
22
100
AcDbXrecord
280
     1
270
     1
271
     1
  0
XRECORD
  5
26
102
{ACAD_REACTORS
330
22
102
}
330
22
100
AcDbXrecord
280
     1
270
     1
271
     1
  0
XRECORD
  5
28
102
{ACAD_REACTORS
330
22
102
}
330
22
100
AcDbXrecord
280
     1
270
     1
271
     1
  0
XRECORD
  5
25
102
{ACAD_REACTORS
330
22
102
}
330
22
100
AcDbXrecord
280
     1
270
     1
271
     1
  0
XRECORD
  5
E9
102
{ACAD_REACTORS
330
E8
102
}
330
E8
100
AcDbXrecord
280
     1
102
ACAD_ROUNDTRIP_2012_MLEADER_STYLE
298
     1
  0
XRECORD
  5
EB
102
{ACAD_REACTORS
330
EA
102
}
330
EA
100
AcDbXrecord
280
     1
102
DISPLAYNAME
  1
Imperial24
102
FLAGS
 90
        0
  0
CELLSTYLEMAP
  5
B1
102
{ACAD_REACTORS
330
B0
102
}
330
B0
100
AcDbCellStyleMap
 90
        3
300
CELLSTYLE
  1
TABLEFORMAT_BEGIN
 90
        5
170
     1
 91
        0
 92
    32768
 62
   257
 93
        1
300
CONTENTFORMAT
  1
CONTENTFORMAT_BEGIN
 90
        0
 91
        0
 92
      512
 93
        0
300

 40
0.0
140
1.0
 94
        5
 62
     0
340
55
144
0.25
309
CONTENTFORMAT_END
171
     0
 94
        0
309
TABLEFORMAT_END
  1
CELLSTYLE_BEGIN
 90
        1
 91
        1
300
_TITLE
309
CELLSTYLE_END
300
CELLSTYLE
  1
TABLEFORMAT_BEGIN
 90
        5
170
     1
 91
        0
 92
        0
 62
   257
 93
        1
300
CONTENTFORMAT
  1
CONTENTFORMAT_BEGIN
 90
        0
 91
        0
 92
      512
 93
        0
300

 40
0.0
140
1.0
 94
        5
 62
     0
340
55
144
0.18
309
CONTENTFORMAT_END
171
     0
 94
        0
309
TABLEFORMAT_END
  1
CELLSTYLE_BEGIN
 90
        2
 91
        1
300
_HEADER
309
CELLSTYLE_END
300
CELLSTYLE
  1
TABLEFORMAT_BEGIN
 90
        5
170
     1
 91
        0
 92
        0
 62
   257
 93
        1
300
CONTENTFORMAT
  1
CONTENTFORMAT_BEGIN
 90
        0
 91
        0
 92
      512
 93
        0
300

 40
0.0
140
1.0
 94
        2
 62
     0
340
55
144
0.18
309
CONTENTFORMAT_END
171
     0
 94
        0
309
TABLEFORMAT_END
  1
CELLSTYLE_BEGIN
 90
        3
 91
        2
300
_DATA
309
CELLSTYLE_END
  0
XRECORD
  5
E6
102
{ACAD_REACTORS
330
B0
102
}
330
B0
100
AcDbXrecord
280
     1
102
ACAD_ROUNDTRIP_PRE2007_TABLESTYLE
 90
      512
 91
        0
  1

 92
      512
 93
        0
  2

 94
      512
 95
        0
  3

  0
XRECORD
  5
C1
102
{ACAD_REACTORS
330
C0
102
}
330
C0
100
AcDbXrecord
280
     1
102
RTVSPost2010Prop28
280
     1
102
RTVSPost2010PropOp28
 70
     1
102
RTVSPost2010Prop29
280
     1
102
RTVSPost2010PropOp29
 70
     1
102
RTVSPost2010Prop30
280
     0
102
RTVSPost2010PropOp30
 70
     1
102
RTVSPost2010Prop31
280
     0
102
RTVSPost2010PropOp31
 70
     1
102
RTVSPost2010Prop32
280
     0
102
RTVSPost2010PropOp32
 70
     1
102
RTVSPost2010Prop33
280
     0
102
RTVSPost2010PropOp33
 70
     1
102
RTVSPost2010Prop34
280
     0
102
RTVSPost2010PropOp34
 70
     1
102
RTVSPost2010Prop35
280
     0
102
RTVSPost2010PropOp35
 70
     1
102
RTVSPost2010Prop36
280
     0
102
RTVSPost2010PropOp36
 70
     1
102
RTVSPost2010Prop37
 90
       50
102
RTVSPost2010PropOp37
 70
     1
102
RTVSPost2010Prop38
140
0.0
102
RTVSPost2010PropOp38
 70
     1
102
RTVSPost2010Prop39
140
1.0
102
RTVSPost2010PropOp39
 70
     1
102
RTVSPost2010Prop40
 90
        0
102
RTVSPost2010PropOp40
 70
     1
102
RTVSPost2010Prop41ColorIndex
 90
       18
102
RTVSPost2010Prop41ColorRGB
 90
        0
102
RTVSPost2010PropOp41
 70
     1
102
RTVSPost2010Prop42
 90
       50
102
RTVSPost2010PropOp42
 70
     1
102
RTVSPost2010Prop43
 90
        3
102
RTVSPost2010PropOp43
 70
     1
102
RTVSPost2010Prop44ColorIndex
 90
        5
102
RTVSPost2010Prop44ColorRGB
 90
      255
102
RTVSPost2010PropOp44
 70
     1
102
RTVSPost2010Prop45
280
     0
102
RTVSPost2010PropOp45
 70
     1
102
RTVSPost2010Prop46
 90
       50
102
RTVSPost2010PropOp46
 70
     1
102
RTVSPost2010Prop47
 90
       50
102
RTVSPost2010PropOp47
 70
     1
102
RTVSPost2010Prop48
 90
       50
102
RTVSPost2010PropOp48
 70
     1
102
RTVSPost2010Prop49
280
     0
102
RTVSPost2010PropOp49
 70
     1
102
RTVSPost2010Prop50
 90
       50
102
RTVSPost2010PropOp50
 70
     1
102
RTVSPost2010Prop51ColorIndex
 90
      256
102
RTVSPost2010Prop51ColorRGB
 90
-16777216
102
RTVSPost2010PropOp51
 70
     0
102
RTVSPost2010Prop52
140
1.0
102
RTVSPost2010PropOp52
 70
     0
102
RTVSPost2010Prop53
 90
        2
102
RTVSPost2010PropOp53
 70
     1
102
RTVSPost2010Prop54
  1
strokes_ogs.tif
102
RTVSPost2010PropOp54
 70
     1
102
RTVSPost2010Prop55
280
     0
102
RTVSPost2010PropOp55
 70
     1
102
RTVSPost2010Prop56
140
1.0
102
RTVSPost2010PropOp56
 70
     1
102
RTVSPost2010Prop57
140
1.0
102
RTVSPost2010PropOp57
 70
     1
102
RTVSPropertyOp0
 70
     1
102
RTVSPropertyOp1
 70
     1
102
RTVSPropertyOp2
 70
     1
102
RTVSPropertyOp3
 70
     1
102
RTVSPropertyOp4
 70
     1
102
RTVSPropertyOp5
 70
     1
102
RTVSPropertyOp6
 70
     1
102
RTVSPropertyOp7
 70
     1
102
RTVSPropertyOp8
 70
     1
102
RTVSPropertyOp9
 70
     1
102
RTVSPropertyOp10
 70
     1
102
RTVSPropertyOp11
 70
     1
102
RTVSPropertyOp12
 70
     1
102
RTVSPropertyOp13
 70
     1
102
RTVSPropertyOp14
 70
     1
102
RTVSPropertyOp15
 70
     1
102
RTVSPropertyOp16
 70
     1
102
RTVSPropertyOp17
 70
     1
102
RTVSPropertyOp18
 70
     1
102
RTVSPropertyOp19
 70
     1
102
RTVSPropertyOp20
 70
     1
102
RTVSPropertyOp21
 70
     1
102
RTVSPropertyOp22
 70
     1
102
RTVSPropertyOp23
 70
     1
102
RTVSPropertyOp24
 70
     1
102
RTVSPropertyOp25
 70
     1
102
RTVSPropertyOp26
 70
     1
102
RTVSPropertyOp27
 70
     1
102
RTVSPropertyOp28
 70
     1
102
RTVSPropertyOp29
 70
     1
102
RTVSPropertyOp30
 70
     1
102
RTVSPropertyOp31
 70
     1
102
RTVSPropertyOp32
 70
     1
102
RTVSPropertyOp33
 70
     1
102
RTVSPropertyOp34
 70
     1
102
RTVSPropertyOp35
 70
     1
102
RTVSPropertyOp36
 70
     1
102
RTVSPropertyOp37
 70
     1
102
RTVSPropertyOp38
 70
     1
102
RTVSPropertyOp39
 70
     1
102
RTVSPropertyOp40
 70
     1
102
RTVSPropertyOp41
 70
     1
102
RTVSPropertyOp42
 70
     1
102
RTVSPropertyOp43
 70
     1
102
RTVSPropertyOp44
 70
     1
102
RTVSPropertyOp45
 70
     1
102
RTVSPropertyOp46
 70
     1
102
RTVSPropertyOp47
 70
     1
102
RTVSPropertyOp48
 70
     1
102
RTVSPropertyOp49
 70
     1
102
RTVSPropertyOp50
 70
     1
102
RTVSPropertyOp51
 70
     0
102
RTVSPropertyOp52
 70
     0
102
RTVSPropertyOp53
 70
     1
102
RTVSPropertyOp54
 70
     1
102
RTVSPropertyOp55
 70
     1
102
RTVSPropertyOp56
 70
     1
102
RTVSPropertyOp57
 70
     1
102
RTVSPropertyOp58
 70
     1
102
RTVSPropertyOp59
 70
     1
102
RTVSPropertyOp60
 70
     1
102
RTVSPropertyOp61
 70
     1
102
RTVSPropertyOp62
 70
     1
  0
XRECORD
  5
BF
102
{ACAD_REACTORS
330
BE
102
}
330
BE
100
AcDbXrecord
280
     1
102
RTVSPost2010Prop28
280
     0
102
RTVSPost2010PropOp28
 70
     1
102
RTVSPost2010Prop29
280
     1
102
RTVSPost2010PropOp29
 70
     1
102
RTVSPost2010Prop30
280
     1
102
RTVSPost2010PropOp30
 70
     1
102
RTVSPost2010Prop31
280
     0
102
RTVSPost2010PropOp31
 70
     1
102
RTVSPost2010Prop32
280
     0
102
RTVSPost2010PropOp32
 70
     1
102
RTVSPost2010Prop33
280
     0
102
RTVSPost2010PropOp33
 70
     1
102
RTVSPost2010Prop34
280
     0
102
RTVSPost2010PropOp34
 70
     1
102
RTVSPost2010Prop35
280
     0
102
RTVSPost2010PropOp35
 70
     1
102
RTVSPost2010Prop36
280
     0
102
RTVSPost2010PropOp36
 70
     1
102
RTVSPost2010Prop37
 90
       50
102
RTVSPost2010PropOp37
 70
     1
102
RTVSPost2010Prop38
140
0.0
102
RTVSPost2010PropOp38
 70
     1
102
RTVSPost2010Prop39
140
1.0
102
RTVSPost2010PropOp39
 70
     1
102
RTVSPost2010Prop40
 90
        0
102
RTVSPost2010PropOp40
 70
     1
102
RTVSPost2010Prop41ColorIndex
 90
       18
102
RTVSPost2010Prop41ColorRGB
 90
        0
102
RTVSPost2010PropOp41
 70
     1
102
RTVSPost2010Prop42
 90
       50
102
RTVSPost2010PropOp42
 70
     1
102
RTVSPost2010Prop43
 90
        3
102
RTVSPost2010PropOp43
 70
     1
102
RTVSPost2010Prop44ColorIndex
 90
        5
102
RTVSPost2010Prop44ColorRGB
 90
      255
102
RTVSPost2010PropOp44
 70
     1
102
RTVSPost2010Prop45
280
     0
102
RTVSPost2010PropOp45
 70
     1
102
RTVSPost2010Prop46
 90
       50
102
RTVSPost2010PropOp46
 70
     1
102
RTVSPost2010Prop47
 90
       50
102
RTVSPost2010PropOp47
 70
     1
102
RTVSPost2010Prop48
 90
       50
102
RTVSPost2010PropOp48
 70
     1
102
RTVSPost2010Prop49
280
     0
102
RTVSPost2010PropOp49
 70
     1
102
RTVSPost2010Prop50
 90
       50
102
RTVSPost2010PropOp50
 70
     1
102
RTVSPost2010Prop51ColorIndex
 90
      256
102
RTVSPost2010Prop51ColorRGB
 90
-16777216
102
RTVSPost2010PropOp51
 70
     0
102
RTVSPost2010Prop52
140
1.0
102
RTVSPost2010PropOp52
 70
     0
102
RTVSPost2010Prop53
 90
        2
102
RTVSPost2010PropOp53
 70
     1
102
RTVSPost2010Prop54
  1
strokes_ogs.tif
102
RTVSPost2010PropOp54
 70
     1
102
RTVSPost2010Prop55
280
     0
102
RTVSPost2010PropOp55
 70
     1
102
RTVSPost2010Prop56
140
1.0
102
RTVSPost2010PropOp56
 70
     1
102
RTVSPost2010Prop57
140
1.0
102
RTVSPost2010PropOp57
 70
     1
102
RTVSPropertyOp0
 70
     1
102
RTVSPropertyOp1
 70
     1
102
RTVSPropertyOp2
 70
     1
102
RTVSPropertyOp3
 70
     1
102
RTVSPropertyOp4
 70
     1
102
RTVSPropertyOp5
 70
     1
102
RTVSPropertyOp6
 70
     1
102
RTVSPropertyOp7
 70
     1
102
RTVSPropertyOp8
 70
     1
102
RTVSPropertyOp9
 70
     1
102
RTVSPropertyOp10
 70
     1
102
RTVSPropertyOp11
 70
     1
102
RTVSPropertyOp12
 70
     1
102
RTVSPropertyOp13
 70
     1
102
RTVSPropertyOp14
 70
     1
102
RTVSPropertyOp15
 70
     1
102
RTVSPropertyOp16
 70
     1
102
RTVSPropertyOp17
 70
     1
102
RTVSPropertyOp18
 70
     1
102
RTVSPropertyOp19
 70
     1
102
RTVSPropertyOp20
 70
     1
102
RTVSPropertyOp21
 70
     1
102
RTVSPropertyOp22
 70
     1
102
RTVSPropertyOp23
 70
     1
102
RTVSPropertyOp24
 70
     1
102
RTVSPropertyOp25
 70
     1
102
RTVSPropertyOp26
 70
     1
102
RTVSPropertyOp27
 70
     1
102
RTVSPropertyOp28
 70
     1
102
RTVSPropertyOp29
 70
     1
102
RTVSPropertyOp30
 70
     1
102
RTVSPropertyOp31
 70
     1
102
RTVSPropertyOp32
 70
     1
102
RTVSPropertyOp33
 70
     1
102
RTVSPropertyOp34
 70
     1
102
RTVSPropertyOp35
 70
     1
102
RTVSPropertyOp36
 70
     1
102
RTVSPropertyOp37
 70
     1
102
RTVSPropertyOp38
 70
     1
102
RTVSPropertyOp39
 70
     1
102
RTVSPropertyOp40
 70
     1
102
RTVSPropertyOp41
 70
     1
102
RTVSPropertyOp42
 70
     1
102
RTVSPropertyOp43
 70
     1
102
RTVSPropertyOp44
 70
     1
102
RTVSPropertyOp45
 70
     1
102
RTVSPropertyOp46
 70
     1
102
RTVSPropertyOp47
 70
     1
102
RTVSPropertyOp48
 70
     1
102
RTVSPropertyOp49
 70
     1
102
RTVSPropertyOp50
 70
     1
102
RTVSPropertyOp51
 70
     0
102
RTVSPropertyOp52
 70
     0
102
RTVSPropertyOp53
 70
     1
102
RTVSPropertyOp54
 70
     1
102
RTVSPropertyOp55
 70
     1
102
RTVSPropertyOp56
 70
     1
102
RTVSPropertyOp57
 70
     1
102
RTVSPropertyOp58
 70
     1
102
RTVSPropertyOp59
 70
     1
102
RTVSPropertyOp60
 70
     1
102
RTVSPropertyOp61
 70
     1
102
RTVSPropertyOp62
 70
     1
  0
XRECORD
  5
CD
102
{ACAD_REACTORS
330
CC
102
}
330
CC
100
AcDbXrecord
280
     1
102
RTVSPost2010Prop28
280
     0
102
RTVSPost2010PropOp28
 70
     1
102
RTVSPost2010Prop29
280
     1
102
RTVSPost2010PropOp29
 70
     1
102
RTVSPost2010Prop30
280
     1
102
RTVSPost2010PropOp30
 70
     1
102
RTVSPost2010Prop31
280
     0
102
RTVSPost2010PropOp31
 70
     1
102
RTVSPost2010Prop32
280
     0
102
RTVSPost2010PropOp32
 70
     1
102
RTVSPost2010Prop33
280
     0
102
RTVSPost2010PropOp33
 70
     1
102
RTVSPost2010Prop34
280
     0
102
RTVSPost2010PropOp34
 70
     1
102
RTVSPost2010Prop35
280
     0
102
RTVSPost2010PropOp35
 70
     1
102
RTVSPost2010Prop36
280
     0
102
RTVSPost2010PropOp36
 70
     1
102
RTVSPost2010Prop37
 90
       50
102
RTVSPost2010PropOp37
 70
     1
102
RTVSPost2010Prop38
140
0.0
102
RTVSPost2010PropOp38
 70
     1
102
RTVSPost2010Prop39
140
1.0
102
RTVSPost2010PropOp39
 70
     1
102
RTVSPost2010Prop40
 90
        0
102
RTVSPost2010PropOp40
 70
     1
102
RTVSPost2010Prop41ColorIndex
 90
       18
102
RTVSPost2010Prop41ColorRGB
 90
        0
102
RTVSPost2010PropOp41
 70
     1
102
RTVSPost2010Prop42
 90
       50
102
RTVSPost2010PropOp42
 70
     1
102
RTVSPost2010Prop43
 90
        3
102
RTVSPost2010PropOp43
 70
     1
102
RTVSPost2010Prop44ColorIndex
 90
        5
102
RTVSPost2010Prop44ColorRGB
 90
      255
102
RTVSPost2010PropOp44
 70
     1
102
RTVSPost2010Prop45
280
     0
102
RTVSPost2010PropOp45
 70
     1
102
RTVSPost2010Prop46
 90
       50
102
RTVSPost2010PropOp46
 70
     1
102
RTVSPost2010Prop47
 90
       50
102
RTVSPost2010PropOp47
 70
     1
102
RTVSPost2010Prop48
 90
       50
102
RTVSPost2010PropOp48
 70
     1
102
RTVSPost2010Prop49
280
     0
102
RTVSPost2010PropOp49
 70
     1
102
RTVSPost2010Prop50
 90
       50
102
RTVSPost2010PropOp50
 70
     1
102
RTVSPost2010Prop51ColorIndex
 90
      256
102
RTVSPost2010Prop51ColorRGB
 90
-16777216
102
RTVSPost2010PropOp51
 70
     0
102
RTVSPost2010Prop52
140
1.0
102
RTVSPost2010PropOp52
 70
     0
102
RTVSPost2010Prop53
 90
        2
102
RTVSPost2010PropOp53
 70
     1
102
RTVSPost2010Prop54
  1
strokes_ogs.tif
102
RTVSPost2010PropOp54
 70
     1
102
RTVSPost2010Prop55
280
     0
102
RTVSPost2010PropOp55
 70
     1
102
RTVSPost2010Prop56
140
1.0
102
RTVSPost2010PropOp56
 70
     1
102
RTVSPost2010Prop57
140
1.0
102
RTVSPost2010PropOp57
 70
     1
102
RTVSPropertyOp0
 70
     1
102
RTVSPropertyOp1
 70
     1
102
RTVSPropertyOp2
 70
     1
102
RTVSPropertyOp3
 70
     1
102
RTVSPropertyOp4
 70
     1
102
RTVSPropertyOp5
 70
     1
102
RTVSPropertyOp6
 70
     1
102
RTVSPropertyOp7
 70
     1
102
RTVSPropertyOp8
 70
     1
102
RTVSPropertyOp9
 70
     1
102
RTVSPropertyOp10
 70
     1
102
RTVSPropertyOp11
 70
     1
102
RTVSPropertyOp12
 70
     1
102
RTVSPropertyOp13
 70
     1
102
RTVSPropertyOp14
 70
     1
102
RTVSPropertyOp15
 70
     1
102
RTVSPropertyOp16
 70
     1
102
RTVSPropertyOp17
 70
     1
102
RTVSPropertyOp18
 70
     1
102
RTVSPropertyOp19
 70
     1
102
RTVSPropertyOp20
 70
     1
102
RTVSPropertyOp21
 70
     1
102
RTVSPropertyOp22
 70
     1
102
RTVSPropertyOp23
 70
     1
102
RTVSPropertyOp24
 70
     1
102
RTVSPropertyOp25
 70
     1
102
RTVSPropertyOp26
 70
     1
102
RTVSPropertyOp27
 70
     1
102
RTVSPropertyOp28
 70
     1
102
RTVSPropertyOp29
 70
     1
102
RTVSPropertyOp30
 70
     1
102
RTVSPropertyOp31
 70
     1
102
RTVSPropertyOp32
 70
     1
102
RTVSPropertyOp33
 70
     1
102
RTVSPropertyOp34
 70
     1
102
RTVSPropertyOp35
 70
     1
102
RTVSPropertyOp36
 70
     1
102
RTVSPropertyOp37
 70
     1
102
RTVSPropertyOp38
 70
     1
102
RTVSPropertyOp39
 70
     1
102
RTVSPropertyOp40
 70
     1
102
RTVSPropertyOp41
 70
     1
102
RTVSPropertyOp42
 70
     1
102
RTVSPropertyOp43
 70
     1
102
RTVSPropertyOp44
 70
     1
102
RTVSPropertyOp45
 70
     1
102
RTVSPropertyOp46
 70
     1
102
RTVSPropertyOp47
 70
     1
102
RTVSPropertyOp48
 70
     1
102
RTVSPropertyOp49
 70
     1
102
RTVSPropertyOp50
 70
     1
102
RTVSPropertyOp51
 70
     0
102
RTVSPropertyOp52
 70
     0
102
RTVSPropertyOp53
 70
     1
102
RTVSPropertyOp54
 70
     1
102
RTVSPropertyOp55
 70
     1
102
RTVSPropertyOp56
 70
     1
102
RTVSPropertyOp57
 70
     1
102
RTVSPropertyOp58
 70
     1
102
RTVSPropertyOp59
 70
     1
102
RTVSPropertyOp60
 70
     1
102
RTVSPropertyOp61
 70
     1
102
RTVSPropertyOp62
 70
     1
  0
XRECORD
  5
D5
102
{ACAD_REACTORS
330
D4
102
}
330
D4
100
AcDbXrecord
280
     1
102
RTVSPost2010Prop28
280
     0
102
RTVSPost2010PropOp28
 70
     1
102
RTVSPost2010Prop29
280
     1
102
RTVSPost2010PropOp29
 70
     1
102
RTVSPost2010Prop30
280
     1
102
RTVSPost2010PropOp30
 70
     1
102
RTVSPost2010Prop31
280
     0
102
RTVSPost2010PropOp31
 70
     1
102
RTVSPost2010Prop32
280
     0
102
RTVSPost2010PropOp32
 70
     1
102
RTVSPost2010Prop33
280
     0
102
RTVSPost2010PropOp33
 70
     1
102
RTVSPost2010Prop34
280
     0
102
RTVSPost2010PropOp34
 70
     1
102
RTVSPost2010Prop35
280
     0
102
RTVSPost2010PropOp35
 70
     1
102
RTVSPost2010Prop36
280
     0
102
RTVSPost2010PropOp36
 70
     1
102
RTVSPost2010Prop37
 90
       50
102
RTVSPost2010PropOp37
 70
     1
102
RTVSPost2010Prop38
140
0.0
102
RTVSPost2010PropOp38
 70
     1
102
RTVSPost2010Prop39
140
1.0
102
RTVSPost2010PropOp39
 70
     1
102
RTVSPost2010Prop40
 90
        0
102
RTVSPost2010PropOp40
 70
     1
102
RTVSPost2010Prop41ColorIndex
 90
       18
102
RTVSPost2010Prop41ColorRGB
 90
        0
102
RTVSPost2010PropOp41
 70
     1
102
RTVSPost2010Prop42
 90
       50
102
RTVSPost2010PropOp42
 70
     1
102
RTVSPost2010Prop43
 90
        3
102
RTVSPost2010PropOp43
 70
     1
102
RTVSPost2010Prop44ColorIndex
 90
        5
102
RTVSPost2010Prop44ColorRGB
 90
      255
102
RTVSPost2010PropOp44
 70
     1
102
RTVSPost2010Prop45
280
     0
102
RTVSPost2010PropOp45
 70
     1
102
RTVSPost2010Prop46
 90
       50
102
RTVSPost2010PropOp46
 70
     1
102
RTVSPost2010Prop47
 90
       50
102
RTVSPost2010PropOp47
 70
     1
102
RTVSPost2010Prop48
 90
       50
102
RTVSPost2010PropOp48
 70
     1
102
RTVSPost2010Prop49
280
     0
102
RTVSPost2010PropOp49
 70
     1
102
RTVSPost2010Prop50
 90
       50
102
RTVSPost2010PropOp50
 70
     1
102
RTVSPost2010Prop51ColorIndex
 90
      256
102
RTVSPost2010Prop51ColorRGB
 90
-16777216
102
RTVSPost2010PropOp51
 70
     0
102
RTVSPost2010Prop52
140
1.0
102
RTVSPost2010PropOp52
 70
     0
102
RTVSPost2010Prop53
 90
        2
102
RTVSPost2010PropOp53
 70
     1
102
RTVSPost2010Prop54
  1
strokes_ogs.tif
102
RTVSPost2010PropOp54
 70
     1
102
RTVSPost2010Prop55
280
     0
102
RTVSPost2010PropOp55
 70
     1
102
RTVSPost2010Prop56
140
1.0
102
RTVSPost2010PropOp56
 70
     1
102
RTVSPost2010Prop57
140
1.0
102
RTVSPost2010PropOp57
 70
     1
102
RTVSPropertyOp0
 70
     1
102
RTVSPropertyOp1
 70
     1
102
RTVSPropertyOp2
 70
     1
102
RTVSPropertyOp3
 70
     1
102
RTVSPropertyOp4
 70
     1
102
RTVSPropertyOp5
 70
     1
102
RTVSPropertyOp6
 70
     1
102
RTVSPropertyOp7
 70
     1
102
RTVSPropertyOp8
 70
     1
102
RTVSPropertyOp9
 70
     1
102
RTVSPropertyOp10
 70
     1
102
RTVSPropertyOp11
 70
     1
102
RTVSPropertyOp12
 70
     1
102
RTVSPropertyOp13
 70
     1
102
RTVSPropertyOp14
 70
     1
102
RTVSPropertyOp15
 70
     1
102
RTVSPropertyOp16
 70
     1
102
RTVSPropertyOp17
 70
     1
102
RTVSPropertyOp18
 70
     1
102
RTVSPropertyOp19
 70
     1
102
RTVSPropertyOp20
 70
     1
102
RTVSPropertyOp21
 70
     1
102
RTVSPropertyOp22
 70
     1
102
RTVSPropertyOp23
 70
     1
102
RTVSPropertyOp24
 70
     1
102
RTVSPropertyOp25
 70
     1
102
RTVSPropertyOp26
 70
     1
102
RTVSPropertyOp27
 70
     1
102
RTVSPropertyOp28
 70
     1
102
RTVSPropertyOp29
 70
     1
102
RTVSPropertyOp30
 70
     1
102
RTVSPropertyOp31
 70
     1
102
RTVSPropertyOp32
 70
     1
102
RTVSPropertyOp33
 70
     1
102
RTVSPropertyOp34
 70
     1
102
RTVSPropertyOp35
 70
     1
102
RTVSPropertyOp36
 70
     1
102
RTVSPropertyOp37
 70
     1
102
RTVSPropertyOp38
 70
     1
102
RTVSPropertyOp39
 70
     1
102
RTVSPropertyOp40
 70
     1
102
RTVSPropertyOp41
 70
     1
102
RTVSPropertyOp42
 70
     1
102
RTVSPropertyOp43
 70
     1
102
RTVSPropertyOp44
 70
     1
102
RTVSPropertyOp45
 70
     1
102
RTVSPropertyOp46
 70
     1
102
RTVSPropertyOp47
 70
     1
102
RTVSPropertyOp48
 70
     1
102
RTVSPropertyOp49
 70
     1
102
RTVSPropertyOp50
 70
     1
102
RTVSPropertyOp51
 70
     0
102
RTVSPropertyOp52
 70
     0
102
RTVSPropertyOp53
 70
     1
102
RTVSPropertyOp54
 70
     1
102
RTVSPropertyOp55
 70
     1
102
RTVSPropertyOp56
 70
     1
102
RTVSPropertyOp57
 70
     1
102
RTVSPropertyOp58
 70
     1
102
RTVSPropertyOp59
 70
     1
102
RTVSPropertyOp60
 70
     1
102
RTVSPropertyOp61
 70
     1
102
RTVSPropertyOp62
 70
     1
  0
XRECORD
  5
C7
102
{ACAD_REACTORS
330
C6
102
}
330
C6
100
AcDbXrecord
280
     1
102
RTVSPost2010Prop28
280
     0
102
RTVSPost2010PropOp28
 70
     1
102
RTVSPost2010Prop29
280
     1
102
RTVSPost2010PropOp29
 70
     1
102
RTVSPost2010Prop30
280
     1
102
RTVSPost2010PropOp30
 70
     1
102
RTVSPost2010Prop31
280
     0
102
RTVSPost2010PropOp31
 70
     1
102
RTVSPost2010Prop32
280
     0
102
RTVSPost2010PropOp32
 70
     1
102
RTVSPost2010Prop33
280
     0
102
RTVSPost2010PropOp33
 70
     1
102
RTVSPost2010Prop34
280
     0
102
RTVSPost2010PropOp34
 70
     1
102
RTVSPost2010Prop35
280
     0
102
RTVSPost2010PropOp35
 70
     1
102
RTVSPost2010Prop36
280
     0
102
RTVSPost2010PropOp36
 70
     1
102
RTVSPost2010Prop37
 90
       50
102
RTVSPost2010PropOp37
 70
     1
102
RTVSPost2010Prop38
140
0.0
102
RTVSPost2010PropOp38
 70
     1
102
RTVSPost2010Prop39
140
1.0
102
RTVSPost2010PropOp39
 70
     1
102
RTVSPost2010Prop40
 90
        0
102
RTVSPost2010PropOp40
 70
     1
102
RTVSPost2010Prop41ColorIndex
 90
       18
102
RTVSPost2010Prop41ColorRGB
 90
        0
102
RTVSPost2010PropOp41
 70
     1
102
RTVSPost2010Prop42
 90
       50
102
RTVSPost2010PropOp42
 70
     1
102
RTVSPost2010Prop43
 90
        3
102
RTVSPost2010PropOp43
 70
     1
102
RTVSPost2010Prop44ColorIndex
 90
        5
102
RTVSPost2010Prop44ColorRGB
 90
      255
102
RTVSPost2010PropOp44
 70
     1
102
RTVSPost2010Prop45
280
     0
102
RTVSPost2010PropOp45
 70
     1
102
RTVSPost2010Prop46
 90
       50
102
RTVSPost2010PropOp46
 70
     1
102
RTVSPost2010Prop47
 90
       50
102
RTVSPost2010PropOp47
 70
     1
102
RTVSPost2010Prop48
 90
       50
102
RTVSPost2010PropOp48
 70
     1
102
RTVSPost2010Prop49
280
     0
102
RTVSPost2010PropOp49
 70
     1
102
RTVSPost2010Prop50
 90
       50
102
RTVSPost2010PropOp50
 70
     1
102
RTVSPost2010Prop51ColorIndex
 90
      256
102
RTVSPost2010Prop51ColorRGB
 90
-16777216
102
RTVSPost2010PropOp51
 70
     0
102
RTVSPost2010Prop52
140
1.0
102
RTVSPost2010PropOp52
 70
     0
102
RTVSPost2010Prop53
 90
        2
102
RTVSPost2010PropOp53
 70
     1
102
RTVSPost2010Prop54
  1
strokes_ogs.tif
102
RTVSPost2010PropOp54
 70
     1
102
RTVSPost2010Prop55
280
     0
102
RTVSPost2010PropOp55
 70
     1
102
RTVSPost2010Prop56
140
1.0
102
RTVSPost2010PropOp56
 70
     1
102
RTVSPost2010Prop57
140
1.0
102
RTVSPost2010PropOp57
 70
     1
102
RTVSPropertyOp0
 70
     1
102
RTVSPropertyOp1
 70
     1
102
RTVSPropertyOp2
 70
     1
102
RTVSPropertyOp3
 70
     1
102
RTVSPropertyOp4
 70
     1
102
RTVSPropertyOp5
 70
     1
102
RTVSPropertyOp6
 70
     1
102
RTVSPropertyOp7
 70
     1
102
RTVSPropertyOp8
 70
     1
102
RTVSPropertyOp9
 70
     1
102
RTVSPropertyOp10
 70
     1
102
RTVSPropertyOp11
 70
     1
102
RTVSPropertyOp12
 70
     1
102
RTVSPropertyOp13
 70
     1
102
RTVSPropertyOp14
 70
     1
102
RTVSPropertyOp15
 70
     1
102
RTVSPropertyOp16
 70
     1
102
RTVSPropertyOp17
 70
     1
102
RTVSPropertyOp18
 70
     1
102
RTVSPropertyOp19
 70
     1
102
RTVSPropertyOp20
 70
     1
102
RTVSPropertyOp21
 70
     1
102
RTVSPropertyOp22
 70
     1
102
RTVSPropertyOp23
 70
     1
102
RTVSPropertyOp24
 70
     1
102
RTVSPropertyOp25
 70
     1
102
RTVSPropertyOp26
 70
     1
102
RTVSPropertyOp27
 70
     1
102
RTVSPropertyOp28
 70
     1
102
RTVSPropertyOp29
 70
     1
102
RTVSPropertyOp30
 70
     1
102
RTVSPropertyOp31
 70
     1
102
RTVSPropertyOp32
 70
     1
102
RTVSPropertyOp33
 70
     1
102
RTVSPropertyOp34
 70
     1
102
RTVSPropertyOp35
 70
     1
102
RTVSPropertyOp36
 70
     1
102
RTVSPropertyOp37
 70
     1
102
RTVSPropertyOp38
 70
     1
102
RTVSPropertyOp39
 70
     1
102
RTVSPropertyOp40
 70
     1
102
RTVSPropertyOp41
 70
     1
102
RTVSPropertyOp42
 70
     1
102
RTVSPropertyOp43
 70
     1
102
RTVSPropertyOp44
 70
     1
102
RTVSPropertyOp45
 70
     1
102
RTVSPropertyOp46
 70
     1
102
RTVSPropertyOp47
 70
     1
102
RTVSPropertyOp48
 70
     1
102
RTVSPropertyOp49
 70
     1
102
RTVSPropertyOp50
 70
     1
102
RTVSPropertyOp51
 70
     0
102
RTVSPropertyOp52
 70
     0
102
RTVSPropertyOp53
 70
     1
102
RTVSPropertyOp54
 70
     1
102
RTVSPropertyOp55
 70
     1
102
RTVSPropertyOp56
 70
     1
102
RTVSPropertyOp57
 70
     1
102
RTVSPropertyOp58
 70
     1
102
RTVSPropertyOp59
 70
     1
102
RTVSPropertyOp60
 70
     1
102
RTVSPropertyOp61
 70
     1
102
RTVSPropertyOp62
 70
     1
  0
XRECORD
  5
CB
102
{ACAD_REACTORS
330
CA
102
}
330
CA
100
AcDbXrecord
280
     1
102
RTVSPost2010Prop28
280
     0
102
RTVSPost2010PropOp28
 70
     1
102
RTVSPost2010Prop29
280
     1
102
RTVSPost2010PropOp29
 70
     1
102
RTVSPost2010Prop30
280
     1
102
RTVSPost2010PropOp30
 70
     1
102
RTVSPost2010Prop31
280
     0
102
RTVSPost2010PropOp31
 70
     1
102
RTVSPost2010Prop32
280
     0
102
RTVSPost2010PropOp32
 70
     1
102
RTVSPost2010Prop33
280
     0
102
RTVSPost2010PropOp33
 70
     1
102
RTVSPost2010Prop34
280
     0
102
RTVSPost2010PropOp34
 70
     1
102
RTVSPost2010Prop35
280
     0
102
RTVSPost2010PropOp35
 70
     1
102
RTVSPost2010Prop36
280
     0
102
RTVSPost2010PropOp36
 70
     1
102
RTVSPost2010Prop37
 90
       50
102
RTVSPost2010PropOp37
 70
     1
102
RTVSPost2010Prop38
140
0.0
102
RTVSPost2010PropOp38
 70
     1
102
RTVSPost2010Prop39
140
1.0
102
RTVSPost2010PropOp39
 70
     1
102
RTVSPost2010Prop40
 90
        0
102
RTVSPost2010PropOp40
 70
     1
102
RTVSPost2010Prop41ColorIndex
 90
       18
102
RTVSPost2010Prop41ColorRGB
 90
        0
102
RTVSPost2010PropOp41
 70
     1
102
RTVSPost2010Prop42
 90
       50
102
RTVSPost2010PropOp42
 70
     1
102
RTVSPost2010Prop43
 90
        3
102
RTVSPost2010PropOp43
 70
     1
102
RTVSPost2010Prop44ColorIndex
 90
        5
102
RTVSPost2010Prop44ColorRGB
 90
      255
102
RTVSPost2010PropOp44
 70
     1
102
RTVSPost2010Prop45
280
     0
102
RTVSPost2010PropOp45
 70
     1
102
RTVSPost2010Prop46
 90
       50
102
RTVSPost2010PropOp46
 70
     1
102
RTVSPost2010Prop47
 90
       50
102
RTVSPost2010PropOp47
 70
     1
102
RTVSPost2010Prop48
 90
       50
102
RTVSPost2010PropOp48
 70
     1
102
RTVSPost2010Prop49
280
     0
102
RTVSPost2010PropOp49
 70
     1
102
RTVSPost2010Prop50
 90
       50
102
RTVSPost2010PropOp50
 70
     1
102
RTVSPost2010Prop51ColorIndex
 90
      256
102
RTVSPost2010Prop51ColorRGB
 90
-16777216
102
RTVSPost2010PropOp51
 70
     0
102
RTVSPost2010Prop52
140
1.0
102
RTVSPost2010PropOp52
 70
     0
102
RTVSPost2010Prop53
 90
        2
102
RTVSPost2010PropOp53
 70
     1
102
RTVSPost2010Prop54
  1
strokes_ogs.tif
102
RTVSPost2010PropOp54
 70
     1
102
RTVSPost2010Prop55
280
     0
102
RTVSPost2010PropOp55
 70
     1
102
RTVSPost2010Prop56
140
1.0
102
RTVSPost2010PropOp56
 70
     1
102
RTVSPost2010Prop57
140
1.0
102
RTVSPost2010PropOp57
 70
     1
102
RTVSPropertyOp0
 70
     1
102
RTVSPropertyOp1
 70
     1
102
RTVSPropertyOp2
 70
     1
102
RTVSPropertyOp3
 70
     1
102
RTVSPropertyOp4
 70
     1
102
RTVSPropertyOp5
 70
     1
102
RTVSPropertyOp6
 70
     1
102
RTVSPropertyOp7
 70
     1
102
RTVSPropertyOp8
 70
     1
102
RTVSPropertyOp9
 70
     1
102
RTVSPropertyOp10
 70
     1
102
RTVSPropertyOp11
 70
     1
102
RTVSPropertyOp12
 70
     1
102
RTVSPropertyOp13
 70
     1
102
RTVSPropertyOp14
 70
     1
102
RTVSPropertyOp15
 70
     1
102
RTVSPropertyOp16
 70
     1
102
RTVSPropertyOp17
 70
     1
102
RTVSPropertyOp18
 70
     1
102
RTVSPropertyOp19
 70
     1
102
RTVSPropertyOp20
 70
     1
102
RTVSPropertyOp21
 70
     1
102
RTVSPropertyOp22
 70
     1
102
RTVSPropertyOp23
 70
     1
102
RTVSPropertyOp24
 70
     1
102
RTVSPropertyOp25
 70
     1
102
RTVSPropertyOp26
 70
     1
102
RTVSPropertyOp27
 70
     1
102
RTVSPropertyOp28
 70
     1
102
RTVSPropertyOp29
 70
     1
102
RTVSPropertyOp30
 70
     1
102
RTVSPropertyOp31
 70
     1
102
RTVSPropertyOp32
 70
     1
102
RTVSPropertyOp33
 70
     1
102
RTVSPropertyOp34
 70
     1
102
RTVSPropertyOp35
 70
     1
102
RTVSPropertyOp36
 70
     1
102
RTVSPropertyOp37
 70
     1
102
RTVSPropertyOp38
 70
     1
102
RTVSPropertyOp39
 70
     1
102
RTVSPropertyOp40
 70
     1
102
RTVSPropertyOp41
 70
     1
102
RTVSPropertyOp42
 70
     1
102
RTVSPropertyOp43
 70
     1
102
RTVSPropertyOp44
 70
     1
102
RTVSPropertyOp45
 70
     1
102
RTVSPropertyOp46
 70
     1
102
RTVSPropertyOp47
 70
     1
102
RTVSPropertyOp48
 70
     1
102
RTVSPropertyOp49
 70
     1
102
RTVSPropertyOp50
 70
     1
102
RTVSPropertyOp51
 70
     0
102
RTVSPropertyOp52
 70
     0
102
RTVSPropertyOp53
 70
     1
102
RTVSPropertyOp54
 70
     1
102
RTVSPropertyOp55
 70
     1
102
RTVSPropertyOp56
 70
     1
102
RTVSPropertyOp57
 70
     1
102
RTVSPropertyOp58
 70
     1
102
RTVSPropertyOp59
 70
     1
102
RTVSPropertyOp60
 70
     1
102
RTVSPropertyOp61
 70
     1
102
RTVSPropertyOp62
 70
     1
  0
XRECORD
  5
E5
102
{ACAD_REACTORS
330
E4
102
}
330
E4
100
AcDbXrecord
280
     1
102
RTVSPost2010Prop28
280
     0
102
RTVSPost2010PropOp28
 70
     0
102
RTVSPost2010Prop29
280
     1
102
RTVSPost2010PropOp29
 70
     0
102
RTVSPost2010Prop30
280
     1
102
RTVSPost2010PropOp30
 70
     0
102
RTVSPost2010Prop31
280
     0
102
RTVSPost2010PropOp31
 70
     0
102
RTVSPost2010Prop32
280
     0
102
RTVSPost2010PropOp32
 70
     0
102
RTVSPost2010Prop33
280
     0
102
RTVSPost2010PropOp33
 70
     0
102
RTVSPost2010Prop34
280
     0
102
RTVSPost2010PropOp34
 70
     0
102
RTVSPost2010Prop35
280
     0
102
RTVSPost2010PropOp35
 70
     0
102
RTVSPost2010Prop36
280
     0
102
RTVSPost2010PropOp36
 70
     0
102
RTVSPost2010Prop37
 90
       50
102
RTVSPost2010PropOp37
 70
     0
102
RTVSPost2010Prop38
140
0.0
102
RTVSPost2010PropOp38
 70
     0
102
RTVSPost2010Prop39
140
1.0
102
RTVSPost2010PropOp39
 70
     0
102
RTVSPost2010Prop40
 90
        0
102
RTVSPost2010PropOp40
 70
     0
102
RTVSPost2010Prop41ColorIndex
 90
       18
102
RTVSPost2010Prop41ColorRGB
 90
        0
102
RTVSPost2010PropOp41
 70
     0
102
RTVSPost2010Prop42
 90
       50
102
RTVSPost2010PropOp42
 70
     0
102
RTVSPost2010Prop43
 90
        3
102
RTVSPost2010PropOp43
 70
     0
102
RTVSPost2010Prop44ColorIndex
 90
        5
102
RTVSPost2010Prop44ColorRGB
 90
      255
102
RTVSPost2010PropOp44
 70
     0
102
RTVSPost2010Prop45
280
     0
102
RTVSPost2010PropOp45
 70
     0
102
RTVSPost2010Prop46
 90
       50
102
RTVSPost2010PropOp46
 70
     0
102
RTVSPost2010Prop47
 90
       50
102
RTVSPost2010PropOp47
 70
     0
102
RTVSPost2010Prop48
 90
       50
102
RTVSPost2010PropOp48
 70
     0
102
RTVSPost2010Prop49
280
     0
102
RTVSPost2010PropOp49
 70
     0
102
RTVSPost2010Prop50
 90
       50
102
RTVSPost2010PropOp50
 70
     0
102
RTVSPost2010Prop51ColorIndex
 90
      256
102
RTVSPost2010Prop51ColorRGB
 90
-16777216
102
RTVSPost2010PropOp51
 70
     0
102
RTVSPost2010Prop52
140
1.0
102
RTVSPost2010PropOp52
 70
     0
102
RTVSPost2010Prop53
 90
        2
102
RTVSPost2010PropOp53
 70
     0
102
RTVSPost2010Prop54
  1
strokes_ogs.tif
102
RTVSPost2010PropOp54
 70
     0
102
RTVSPost2010Prop55
280
     0
102
RTVSPost2010PropOp55
 70
     0
102
RTVSPost2010Prop56
140
1.0
102
RTVSPost2010PropOp56
 70
     0
102
RTVSPost2010Prop57
140
1.0
102
RTVSPost2010PropOp57
 70
     0
102
RTVSPropertyOp0
 70
     0
102
RTVSPropertyOp1
 70
     0
102
RTVSPropertyOp2
 70
     0
102
RTVSPropertyOp3
 70
     0
102
RTVSPropertyOp4
 70
     0
102
RTVSPropertyOp5
 70
     0
102
RTVSPropertyOp6
 70
     0
102
RTVSPropertyOp7
 70
     0
102
RTVSPropertyOp8
 70
     0
102
RTVSPropertyOp9
 70
     0
102
RTVSPropertyOp10
 70
     0
102
RTVSPropertyOp11
 70
     0
102
RTVSPropertyOp12
 70
     0
102
RTVSPropertyOp13
 70
     0
102
RTVSPropertyOp14
 70
     2
102
RTVSPropertyOp15
 70
     0
102
RTVSPropertyOp16
 70
     0
102
RTVSPropertyOp17
 70
     0
102
RTVSPropertyOp18
 70
     0
102
RTVSPropertyOp19
 70
     0
102
RTVSPropertyOp20
 70
     0
102
RTVSPropertyOp21
 70
     0
102
RTVSPropertyOp22
 70
     0
102
RTVSPropertyOp23
 70
     0
102
RTVSPropertyOp24
 70
     0
102
RTVSPropertyOp25
 70
     0
102
RTVSPropertyOp26
 70
     0
102
RTVSPropertyOp27
 70
     0
102
RTVSPropertyOp28
 70
     0
102
RTVSPropertyOp29
 70
     0
102
RTVSPropertyOp30
 70
     0
102
RTVSPropertyOp31
 70
     0
102
RTVSPropertyOp32
 70
     0
102
RTVSPropertyOp33
 70
     0
102
RTVSPropertyOp34
 70
     0
102
RTVSPropertyOp35
 70
     0
102
RTVSPropertyOp36
 70
     0
102
RTVSPropertyOp37
 70
     0
102
RTVSPropertyOp38
 70
     0
102
RTVSPropertyOp39
 70
     0
102
RTVSPropertyOp40
 70
     0
102
RTVSPropertyOp41
 70
     0
102
RTVSPropertyOp42
 70
     0
102
RTVSPropertyOp43
 70
     0
102
RTVSPropertyOp44
 70
     0
102
RTVSPropertyOp45
 70
     0
102
RTVSPropertyOp46
 70
     0
102
RTVSPropertyOp47
 70
     0
102
RTVSPropertyOp48
 70
     0
102
RTVSPropertyOp49
 70
     0
102
RTVSPropertyOp50
 70
     0
102
RTVSPropertyOp51
 70
     0
102
RTVSPropertyOp52
 70
     0
102
RTVSPropertyOp53
 70
     0
102
RTVSPropertyOp54
 70
     0
102
RTVSPropertyOp55
 70
     0
102
RTVSPropertyOp56
 70
     0
102
RTVSPropertyOp57
 70
     0
102
RTVSPropertyOp58
 70
     0
102
RTVSPropertyOp59
 70
     0
102
RTVSPropertyOp60
 70
     0
102
RTVSPropertyOp61
 70
     0
102
RTVSPropertyOp62
 70
     0
  0
XRECORD
  5
D3
102
{ACAD_REACTORS
330
D2
102
}
330
D2
100
AcDbXrecord
280
     1
102
RTVSPost2010Prop28
280
     0
102
RTVSPost2010PropOp28
 70
     1
102
RTVSPost2010Prop29
280
     1
102
RTVSPost2010PropOp29
 70
     1
102
RTVSPost2010Prop30
280
     1
102
RTVSPost2010PropOp30
 70
     1
102
RTVSPost2010Prop31
280
     0
102
RTVSPost2010PropOp31
 70
     1
102
RTVSPost2010Prop32
280
     0
102
RTVSPost2010PropOp32
 70
     1
102
RTVSPost2010Prop33
280
     0
102
RTVSPost2010PropOp33
 70
     1
102
RTVSPost2010Prop34
280
     0
102
RTVSPost2010PropOp34
 70
     1
102
RTVSPost2010Prop35
280
     0
102
RTVSPost2010PropOp35
 70
     1
102
RTVSPost2010Prop36
280
     0
102
RTVSPost2010PropOp36
 70
     1
102
RTVSPost2010Prop37
 90
       50
102
RTVSPost2010PropOp37
 70
     1
102
RTVSPost2010Prop38
140
0.0
102
RTVSPost2010PropOp38
 70
     1
102
RTVSPost2010Prop39
140
1.0
102
RTVSPost2010PropOp39
 70
     1
102
RTVSPost2010Prop40
 90
        0
102
RTVSPost2010PropOp40
 70
     1
102
RTVSPost2010Prop41ColorIndex
 90
       18
102
RTVSPost2010Prop41ColorRGB
 90
        0
102
RTVSPost2010PropOp41
 70
     1
102
RTVSPost2010Prop42
 90
       50
102
RTVSPost2010PropOp42
 70
     1
102
RTVSPost2010Prop43
 90
        3
102
RTVSPost2010PropOp43
 70
     1
102
RTVSPost2010Prop44ColorIndex
 90
        5
102
RTVSPost2010Prop44ColorRGB
 90
      255
102
RTVSPost2010PropOp44
 70
     1
102
RTVSPost2010Prop45
280
     0
102
RTVSPost2010PropOp45
 70
     1
102
RTVSPost2010Prop46
 90
       50
102
RTVSPost2010PropOp46
 70
     1
102
RTVSPost2010Prop47
 90
       50
102
RTVSPost2010PropOp47
 70
     1
102
RTVSPost2010Prop48
 90
       50
102
RTVSPost2010PropOp48
 70
     1
102
RTVSPost2010Prop49
280
     0
102
RTVSPost2010PropOp49
 70
     1
102
RTVSPost2010Prop50
 90
       50
102
RTVSPost2010PropOp50
 70
     1
102
RTVSPost2010Prop51ColorIndex
 90
      256
102
RTVSPost2010Prop51ColorRGB
 90
-16777216
102
RTVSPost2010PropOp51
 70
     0
102
RTVSPost2010Prop52
140
1.0
102
RTVSPost2010PropOp52
 70
     0
102
RTVSPost2010Prop53
 90
        2
102
RTVSPost2010PropOp53
 70
     1
102
RTVSPost2010Prop54
  1
strokes_ogs.tif
102
RTVSPost2010PropOp54
 70
     1
102
RTVSPost2010Prop55
280
     0
102
RTVSPost2010PropOp55
 70
     1
102
RTVSPost2010Prop56
140
1.0
102
RTVSPost2010PropOp56
 70
     1
102
RTVSPost2010Prop57
140
1.0
102
RTVSPost2010PropOp57
 70
     1
102
RTVSPropertyOp0
 70
     1
102
RTVSPropertyOp1
 70
     1
102
RTVSPropertyOp2
 70
     1
102
RTVSPropertyOp3
 70
     1
102
RTVSPropertyOp4
 70
     1
102
RTVSPropertyOp5
 70
     1
102
RTVSPropertyOp6
 70
     1
102
RTVSPropertyOp7
 70
     1
102
RTVSPropertyOp8
 70
     1
102
RTVSPropertyOp9
 70
     1
102
RTVSPropertyOp10
 70
     1
102
RTVSPropertyOp11
 70
     1
102
RTVSPropertyOp12
 70
     1
102
RTVSPropertyOp13
 70
     1
102
RTVSPropertyOp14
 70
     1
102
RTVSPropertyOp15
 70
     1
102
RTVSPropertyOp16
 70
     1
102
RTVSPropertyOp17
 70
     1
102
RTVSPropertyOp18
 70
     1
102
RTVSPropertyOp19
 70
     1
102
RTVSPropertyOp20
 70
     1
102
RTVSPropertyOp21
 70
     1
102
RTVSPropertyOp22
 70
     1
102
RTVSPropertyOp23
 70
     1
102
RTVSPropertyOp24
 70
     1
102
RTVSPropertyOp25
 70
     1
102
RTVSPropertyOp26
 70
     1
102
RTVSPropertyOp27
 70
     1
102
RTVSPropertyOp28
 70
     1
102
RTVSPropertyOp29
 70
     1
102
RTVSPropertyOp30
 70
     1
102
RTVSPropertyOp31
 70
     1
102
RTVSPropertyOp32
 70
     1
102
RTVSPropertyOp33
 70
     1
102
RTVSPropertyOp34
 70
     1
102
RTVSPropertyOp35
 70
     1
102
RTVSPropertyOp36
 70
     1
102
RTVSPropertyOp37
 70
     1
102
RTVSPropertyOp38
 70
     1
102
RTVSPropertyOp39
 70
     1
102
RTVSPropertyOp40
 70
     1
102
RTVSPropertyOp41
 70
     1
102
RTVSPropertyOp42
 70
     1
102
RTVSPropertyOp43
 70
     1
102
RTVSPropertyOp44
 70
     1
102
RTVSPropertyOp45
 70
     1
102
RTVSPropertyOp46
 70
     1
102
RTVSPropertyOp47
 70
     1
102
RTVSPropertyOp48
 70
     1
102
RTVSPropertyOp49
 70
     1
102
RTVSPropertyOp50
 70
     1
102
RTVSPropertyOp51
 70
     0
102
RTVSPropertyOp52
 70
     0
102
RTVSPropertyOp53
 70
     1
102
RTVSPropertyOp54
 70
     1
102
RTVSPropertyOp55
 70
     1
102
RTVSPropertyOp56
 70
     1
102
RTVSPropertyOp57
 70
     1
102
RTVSPropertyOp58
 70
     1
102
RTVSPropertyOp59
 70
     1
102
RTVSPropertyOp60
 70
     1
102
RTVSPropertyOp61
 70
     1
102
RTVSPropertyOp62
 70
     1
  0
XRECORD
  5
B7
102
{ACAD_REACTORS
330
B6
102
}
330
B6
100
AcDbXrecord
280
     1
102
RTVSPost2010Prop28
280
     0
102
RTVSPost2010PropOp28
 70
     1
102
RTVSPost2010Prop29
280
     1
102
RTVSPost2010PropOp29
 70
     1
102
RTVSPost2010Prop30
280
     1
102
RTVSPost2010PropOp30
 70
     1
102
RTVSPost2010Prop31
280
     0
102
RTVSPost2010PropOp31
 70
     1
102
RTVSPost2010Prop32
280
     0
102
RTVSPost2010PropOp32
 70
     1
102
RTVSPost2010Prop33
280
     0
102
RTVSPost2010PropOp33
 70
     1
102
RTVSPost2010Prop34
280
     0
102
RTVSPost2010PropOp34
 70
     1
102
RTVSPost2010Prop35
280
     0
102
RTVSPost2010PropOp35
 70
     1
102
RTVSPost2010Prop36
280
     0
102
RTVSPost2010PropOp36
 70
     1
102
RTVSPost2010Prop37
 90
       50
102
RTVSPost2010PropOp37
 70
     1
102
RTVSPost2010Prop38
140
0.0
102
RTVSPost2010PropOp38
 70
     1
102
RTVSPost2010Prop39
140
1.0
102
RTVSPost2010PropOp39
 70
     1
102
RTVSPost2010Prop40
 90
        0
102
RTVSPost2010PropOp40
 70
     1
102
RTVSPost2010Prop41ColorIndex
 90
       18
102
RTVSPost2010Prop41ColorRGB
 90
        0
102
RTVSPost2010PropOp41
 70
     1
102
RTVSPost2010Prop42
 90
       50
102
RTVSPost2010PropOp42
 70
     1
102
RTVSPost2010Prop43
 90
        3
102
RTVSPost2010PropOp43
 70
     1
102
RTVSPost2010Prop44ColorIndex
 90
        5
102
RTVSPost2010Prop44ColorRGB
 90
      255
102
RTVSPost2010PropOp44
 70
     1
102
RTVSPost2010Prop45
280
     0
102
RTVSPost2010PropOp45
 70
     1
102
RTVSPost2010Prop46
 90
       50
102
RTVSPost2010PropOp46
 70
     1
102
RTVSPost2010Prop47
 90
       50
102
RTVSPost2010PropOp47
 70
     1
102
RTVSPost2010Prop48
 90
       50
102
RTVSPost2010PropOp48
 70
     1
102
RTVSPost2010Prop49
280
     0
102
RTVSPost2010PropOp49
 70
     1
102
RTVSPost2010Prop50
 90
       50
102
RTVSPost2010PropOp50
 70
     1
102
RTVSPost2010Prop51ColorIndex
 90
      256
102
RTVSPost2010Prop51ColorRGB
 90
-16777216
102
RTVSPost2010PropOp51
 70
     0
102
RTVSPost2010Prop52
140
1.0
102
RTVSPost2010PropOp52
 70
     0
102
RTVSPost2010Prop53
 90
        2
102
RTVSPost2010PropOp53
 70
     1
102
RTVSPost2010Prop54
  1
strokes_ogs.tif
102
RTVSPost2010PropOp54
 70
     1
102
RTVSPost2010Prop55
280
     0
102
RTVSPost2010PropOp55
 70
     1
102
RTVSPost2010Prop56
140
1.0
102
RTVSPost2010PropOp56
 70
     1
102
RTVSPost2010Prop57
140
1.0
102
RTVSPost2010PropOp57
 70
     1
102
RTVSPropertyOp0
 70
     1
102
RTVSPropertyOp1
 70
     1
102
RTVSPropertyOp2
 70
     1
102
RTVSPropertyOp3
 70
     1
102
RTVSPropertyOp4
 70
     1
102
RTVSPropertyOp5
 70
     1
102
RTVSPropertyOp6
 70
     1
102
RTVSPropertyOp7
 70
     1
102
RTVSPropertyOp8
 70
     1
102
RTVSPropertyOp9
 70
     1
102
RTVSPropertyOp10
 70
     1
102
RTVSPropertyOp11
 70
     1
102
RTVSPropertyOp12
 70
     1
102
RTVSPropertyOp13
 70
     1
102
RTVSPropertyOp14
 70
     1
102
RTVSPropertyOp15
 70
     1
102
RTVSPropertyOp16
 70
     1
102
RTVSPropertyOp17
 70
     1
102
RTVSPropertyOp18
 70
     1
102
RTVSPropertyOp19
 70
     1
102
RTVSPropertyOp20
 70
     1
102
RTVSPropertyOp21
 70
     1
102
RTVSPropertyOp22
 70
     1
102
RTVSPropertyOp23
 70
     1
102
RTVSPropertyOp24
 70
     1
102
RTVSPropertyOp25
 70
     1
102
RTVSPropertyOp26
 70
     1
102
RTVSPropertyOp27
 70
     1
102
RTVSPropertyOp28
 70
     1
102
RTVSPropertyOp29
 70
     1
102
RTVSPropertyOp30
 70
     1
102
RTVSPropertyOp31
 70
     1
102
RTVSPropertyOp32
 70
     1
102
RTVSPropertyOp33
 70
     1
102
RTVSPropertyOp34
 70
     1
102
RTVSPropertyOp35
 70
     1
102
RTVSPropertyOp36
 70
     1
102
RTVSPropertyOp37
 70
     1
102
RTVSPropertyOp38
 70
     1
102
RTVSPropertyOp39
 70
     1
102
RTVSPropertyOp40
 70
     1
102
RTVSPropertyOp41
 70
     1
102
RTVSPropertyOp42
 70
     1
102
RTVSPropertyOp43
 70
     1
102
RTVSPropertyOp44
 70
     1
102
RTVSPropertyOp45
 70
     1
102
RTVSPropertyOp46
 70
     1
102
RTVSPropertyOp47
 70
     1
102
RTVSPropertyOp48
 70
     1
102
RTVSPropertyOp49
 70
     1
102
RTVSPropertyOp50
 70
     1
102
RTVSPropertyOp51
 70
     0
102
RTVSPropertyOp52
 70
     0
102
RTVSPropertyOp53
 70
     1
102
RTVSPropertyOp54
 70
     1
102
RTVSPropertyOp55
 70
     1
102
RTVSPropertyOp56
 70
     1
102
RTVSPropertyOp57
 70
     1
102
RTVSPropertyOp58
 70
     1
102
RTVSPropertyOp59
 70
     1
102
RTVSPropertyOp60
 70
     1
102
RTVSPropertyOp61
 70
     1
102
RTVSPropertyOp62
 70
     1
  0
XRECORD
  5
B9
102
{ACAD_REACTORS
330
B8
102
}
330
B8
100
AcDbXrecord
280
     1
102
RTVSPost2010Prop28
280
     0
102
RTVSPost2010PropOp28
 70
     1
102
RTVSPost2010Prop29
280
     1
102
RTVSPost2010PropOp29
 70
     1
102
RTVSPost2010Prop30
280
     1
102
RTVSPost2010PropOp30
 70
     1
102
RTVSPost2010Prop31
280
     0
102
RTVSPost2010PropOp31
 70
     1
102
RTVSPost2010Prop32
280
     0
102
RTVSPost2010PropOp32
 70
     1
102
RTVSPost2010Prop33
280
     0
102
RTVSPost2010PropOp33
 70
     1
102
RTVSPost2010Prop34
280
     0
102
RTVSPost2010PropOp34
 70
     1
102
RTVSPost2010Prop35
280
     0
102
RTVSPost2010PropOp35
 70
     1
102
RTVSPost2010Prop36
280
     0
102
RTVSPost2010PropOp36
 70
     1
102
RTVSPost2010Prop37
 90
       50
102
RTVSPost2010PropOp37
 70
     1
102
RTVSPost2010Prop38
140
0.0
102
RTVSPost2010PropOp38
 70
     1
102
RTVSPost2010Prop39
140
1.0
102
RTVSPost2010PropOp39
 70
     1
102
RTVSPost2010Prop40
 90
        0
102
RTVSPost2010PropOp40
 70
     1
102
RTVSPost2010Prop41ColorIndex
 90
       18
102
RTVSPost2010Prop41ColorRGB
 90
        0
102
RTVSPost2010PropOp41
 70
     1
102
RTVSPost2010Prop42
 90
       50
102
RTVSPost2010PropOp42
 70
     1
102
RTVSPost2010Prop43
 90
        3
102
RTVSPost2010PropOp43
 70
     1
102
RTVSPost2010Prop44ColorIndex
 90
        5
102
RTVSPost2010Prop44ColorRGB
 90
      255
102
RTVSPost2010PropOp44
 70
     1
102
RTVSPost2010Prop45
280
     0
102
RTVSPost2010PropOp45
 70
     1
102
RTVSPost2010Prop46
 90
       50
102
RTVSPost2010PropOp46
 70
     1
102
RTVSPost2010Prop47
 90
       50
102
RTVSPost2010PropOp47
 70
     1
102
RTVSPost2010Prop48
 90
       50
102
RTVSPost2010PropOp48
 70
     1
102
RTVSPost2010Prop49
280
     0
102
RTVSPost2010PropOp49
 70
     1
102
RTVSPost2010Prop50
 90
       50
102
RTVSPost2010PropOp50
 70
     1
102
RTVSPost2010Prop51ColorIndex
 90
      256
102
RTVSPost2010Prop51ColorRGB
 90
-16777216
102
RTVSPost2010PropOp51
 70
     0
102
RTVSPost2010Prop52
140
1.0
102
RTVSPost2010PropOp52
 70
     0
102
RTVSPost2010Prop53
 90
        2
102
RTVSPost2010PropOp53
 70
     1
102
RTVSPost2010Prop54
  1
strokes_ogs.tif
102
RTVSPost2010PropOp54
 70
     1
102
RTVSPost2010Prop55
280
     0
102
RTVSPost2010PropOp55
 70
     1
102
RTVSPost2010Prop56
140
1.0
102
RTVSPost2010PropOp56
 70
     1
102
RTVSPost2010Prop57
140
1.0
102
RTVSPost2010PropOp57
 70
     1
102
RTVSPropertyOp0
 70
     1
102
RTVSPropertyOp1
 70
     1
102
RTVSPropertyOp2
 70
     1
102
RTVSPropertyOp3
 70
     1
102
RTVSPropertyOp4
 70
     1
102
RTVSPropertyOp5
 70
     1
102
RTVSPropertyOp6
 70
     1
102
RTVSPropertyOp7
 70
     1
102
RTVSPropertyOp8
 70
     1
102
RTVSPropertyOp9
 70
     1
102
RTVSPropertyOp10
 70
     1
102
RTVSPropertyOp11
 70
     1
102
RTVSPropertyOp12
 70
     1
102
RTVSPropertyOp13
 70
     1
102
RTVSPropertyOp14
 70
     1
102
RTVSPropertyOp15
 70
     1
102
RTVSPropertyOp16
 70
     1
102
RTVSPropertyOp17
 70
     1
102
RTVSPropertyOp18
 70
     1
102
RTVSPropertyOp19
 70
     1
102
RTVSPropertyOp20
 70
     1
102
RTVSPropertyOp21
 70
     1
102
RTVSPropertyOp22
 70
     1
102
RTVSPropertyOp23
 70
     1
102
RTVSPropertyOp24
 70
     1
102
RTVSPropertyOp25
 70
     1
102
RTVSPropertyOp26
 70
     1
102
RTVSPropertyOp27
 70
     1
102
RTVSPropertyOp28
 70
     1
102
RTVSPropertyOp29
 70
     1
102
RTVSPropertyOp30
 70
     1
102
RTVSPropertyOp31
 70
     1
102
RTVSPropertyOp32
 70
     1
102
RTVSPropertyOp33
 70
     1
102
RTVSPropertyOp34
 70
     1
102
RTVSPropertyOp35
 70
     1
102
RTVSPropertyOp36
 70
     1
102
RTVSPropertyOp37
 70
     1
102
RTVSPropertyOp38
 70
     1
102
RTVSPropertyOp39
 70
     1
102
RTVSPropertyOp40
 70
     1
102
RTVSPropertyOp41
 70
     1
102
RTVSPropertyOp42
 70
     1
102
RTVSPropertyOp43
 70
     1
102
RTVSPropertyOp44
 70
     1
102
RTVSPropertyOp45
 70
     1
102
RTVSPropertyOp46
 70
     1
102
RTVSPropertyOp47
 70
     1
102
RTVSPropertyOp48
 70
     1
102
RTVSPropertyOp49
 70
     1
102
RTVSPropertyOp50
 70
     1
102
RTVSPropertyOp51
 70
     0
102
RTVSPropertyOp52
 70
     0
102
RTVSPropertyOp53
 70
     1
102
RTVSPropertyOp54
 70
     1
102
RTVSPropertyOp55
 70
     1
102
RTVSPropertyOp56
 70
     1
102
RTVSPropertyOp57
 70
     1
102
RTVSPropertyOp58
 70
     1
102
RTVSPropertyOp59
 70
     1
102
RTVSPropertyOp60
 70
     1
102
RTVSPropertyOp61
 70
     1
102
RTVSPropertyOp62
 70
     1
  0
XRECORD
  5
BB
102
{ACAD_REACTORS
330
BA
102
}
330
BA
100
AcDbXrecord
280
     1
102
RTVSPost2010Prop28
280
     0
102
RTVSPost2010PropOp28
 70
     1
102
RTVSPost2010Prop29
280
     1
102
RTVSPost2010PropOp29
 70
     1
102
RTVSPost2010Prop30
280
     1
102
RTVSPost2010PropOp30
 70
     1
102
RTVSPost2010Prop31
280
     0
102
RTVSPost2010PropOp31
 70
     1
102
RTVSPost2010Prop32
280
     0
102
RTVSPost2010PropOp32
 70
     1
102
RTVSPost2010Prop33
280
     0
102
RTVSPost2010PropOp33
 70
     1
102
RTVSPost2010Prop34
280
     0
102
RTVSPost2010PropOp34
 70
     1
102
RTVSPost2010Prop35
280
     0
102
RTVSPost2010PropOp35
 70
     1
102
RTVSPost2010Prop36
280
     0
102
RTVSPost2010PropOp36
 70
     1
102
RTVSPost2010Prop37
 90
       50
102
RTVSPost2010PropOp37
 70
     1
102
RTVSPost2010Prop38
140
0.0
102
RTVSPost2010PropOp38
 70
     1
102
RTVSPost2010Prop39
140
1.0
102
RTVSPost2010PropOp39
 70
     1
102
RTVSPost2010Prop40
 90
        0
102
RTVSPost2010PropOp40
 70
     1
102
RTVSPost2010Prop41ColorIndex
 90
       18
102
RTVSPost2010Prop41ColorRGB
 90
        0
102
RTVSPost2010PropOp41
 70
     1
102
RTVSPost2010Prop42
 90
       50
102
RTVSPost2010PropOp42
 70
     1
102
RTVSPost2010Prop43
 90
        3
102
RTVSPost2010PropOp43
 70
     1
102
RTVSPost2010Prop44ColorIndex
 90
        5
102
RTVSPost2010Prop44ColorRGB
 90
      255
102
RTVSPost2010PropOp44
 70
     1
102
RTVSPost2010Prop45
280
     0
102
RTVSPost2010PropOp45
 70
     1
102
RTVSPost2010Prop46
 90
       50
102
RTVSPost2010PropOp46
 70
     1
102
RTVSPost2010Prop47
 90
       50
102
RTVSPost2010PropOp47
 70
     1
102
RTVSPost2010Prop48
 90
       50
102
RTVSPost2010PropOp48
 70
     1
102
RTVSPost2010Prop49
280
     0
102
RTVSPost2010PropOp49
 70
     1
102
RTVSPost2010Prop50
 90
       50
102
RTVSPost2010PropOp50
 70
     1
102
RTVSPost2010Prop51ColorIndex
 90
      256
102
RTVSPost2010Prop51ColorRGB
 90
-16777216
102
RTVSPost2010PropOp51
 70
     0
102
RTVSPost2010Prop52
140
1.0
102
RTVSPost2010PropOp52
 70
     0
102
RTVSPost2010Prop53
 90
        2
102
RTVSPost2010PropOp53
 70
     1
102
RTVSPost2010Prop54
  1
strokes_ogs.tif
102
RTVSPost2010PropOp54
 70
     1
102
RTVSPost2010Prop55
280
     0
102
RTVSPost2010PropOp55
 70
     1
102
RTVSPost2010Prop56
140
1.0
102
RTVSPost2010PropOp56
 70
     1
102
RTVSPost2010Prop57
140
1.0
102
RTVSPost2010PropOp57
 70
     1
102
RTVSPropertyOp0
 70
     1
102
RTVSPropertyOp1
 70
     1
102
RTVSPropertyOp2
 70
     1
102
RTVSPropertyOp3
 70
     1
102
RTVSPropertyOp4
 70
     1
102
RTVSPropertyOp5
 70
     1
102
RTVSPropertyOp6
 70
     1
102
RTVSPropertyOp7
 70
     1
102
RTVSPropertyOp8
 70
     1
102
RTVSPropertyOp9
 70
     1
102
RTVSPropertyOp10
 70
     1
102
RTVSPropertyOp11
 70
     1
102
RTVSPropertyOp12
 70
     1
102
RTVSPropertyOp13
 70
     1
102
RTVSPropertyOp14
 70
     1
102
RTVSPropertyOp15
 70
     1
102
RTVSPropertyOp16
 70
     1
102
RTVSPropertyOp17
 70
     1
102
RTVSPropertyOp18
 70
     1
102
RTVSPropertyOp19
 70
     1
102
RTVSPropertyOp20
 70
     1
102
RTVSPropertyOp21
 70
     1
102
RTVSPropertyOp22
 70
     1
102
RTVSPropertyOp23
 70
     1
102
RTVSPropertyOp24
 70
     1
102
RTVSPropertyOp25
 70
     1
102
RTVSPropertyOp26
 70
     1
102
RTVSPropertyOp27
 70
     1
102
RTVSPropertyOp28
 70
     1
102
RTVSPropertyOp29
 70
     1
102
RTVSPropertyOp30
 70
     1
102
RTVSPropertyOp31
 70
     1
102
RTVSPropertyOp32
 70
     1
102
RTVSPropertyOp33
 70
     1
102
RTVSPropertyOp34
 70
     1
102
RTVSPropertyOp35
 70
     1
102
RTVSPropertyOp36
 70
     1
102
RTVSPropertyOp37
 70
     1
102
RTVSPropertyOp38
 70
     1
102
RTVSPropertyOp39
 70
     1
102
RTVSPropertyOp40
 70
     1
102
RTVSPropertyOp41
 70
     1
102
RTVSPropertyOp42
 70
     1
102
RTVSPropertyOp43
 70
     1
102
RTVSPropertyOp44
 70
     1
102
RTVSPropertyOp45
 70
     1
102
RTVSPropertyOp46
 70
     1
102
RTVSPropertyOp47
 70
     1
102
RTVSPropertyOp48
 70
     1
102
RTVSPropertyOp49
 70
     1
102
RTVSPropertyOp50
 70
     1
102
RTVSPropertyOp51
 70
     0
102
RTVSPropertyOp52
 70
     0
102
RTVSPropertyOp53
 70
     1
102
RTVSPropertyOp54
 70
     1
102
RTVSPropertyOp55
 70
     1
102
RTVSPropertyOp56
 70
     1
102
RTVSPropertyOp57
 70
     1
102
RTVSPropertyOp58
 70
     1
102
RTVSPropertyOp59
 70
     1
102
RTVSPropertyOp60
 70
     1
102
RTVSPropertyOp61
 70
     1
102
RTVSPropertyOp62
 70
     1
  0
XRECORD
  5
BD
102
{ACAD_REACTORS
330
BC
102
}
330
BC
100
AcDbXrecord
280
     1
102
RTVSPost2010Prop28
280
     0
102
RTVSPost2010PropOp28
 70
     1
102
RTVSPost2010Prop29
280
     1
102
RTVSPost2010PropOp29
 70
     1
102
RTVSPost2010Prop30
280
     1
102
RTVSPost2010PropOp30
 70
     1
102
RTVSPost2010Prop31
280
     0
102
RTVSPost2010PropOp31
 70
     1
102
RTVSPost2010Prop32
280
     0
102
RTVSPost2010PropOp32
 70
     1
102
RTVSPost2010Prop33
280
     0
102
RTVSPost2010PropOp33
 70
     1
102
RTVSPost2010Prop34
280
     0
102
RTVSPost2010PropOp34
 70
     1
102
RTVSPost2010Prop35
280
     0
102
RTVSPost2010PropOp35
 70
     1
102
RTVSPost2010Prop36
280
     0
102
RTVSPost2010PropOp36
 70
     1
102
RTVSPost2010Prop37
 90
       50
102
RTVSPost2010PropOp37
 70
     1
102
RTVSPost2010Prop38
140
0.0
102
RTVSPost2010PropOp38
 70
     1
102
RTVSPost2010Prop39
140
1.0
102
RTVSPost2010PropOp39
 70
     1
102
RTVSPost2010Prop40
 90
        0
102
RTVSPost2010PropOp40
 70
     1
102
RTVSPost2010Prop41ColorIndex
 90
       18
102
RTVSPost2010Prop41ColorRGB
 90
        0
102
RTVSPost2010PropOp41
 70
     1
102
RTVSPost2010Prop42
 90
       50
102
RTVSPost2010PropOp42
 70
     1
102
RTVSPost2010Prop43
 90
        3
102
RTVSPost2010PropOp43
 70
     1
102
RTVSPost2010Prop44ColorIndex
 90
        5
102
RTVSPost2010Prop44ColorRGB
 90
      255
102
RTVSPost2010PropOp44
 70
     1
102
RTVSPost2010Prop45
280
     0
102
RTVSPost2010PropOp45
 70
     1
102
RTVSPost2010Prop46
 90
       50
102
RTVSPost2010PropOp46
 70
     1
102
RTVSPost2010Prop47
 90
       50
102
RTVSPost2010PropOp47
 70
     1
102
RTVSPost2010Prop48
 90
       50
102
RTVSPost2010PropOp48
 70
     1
102
RTVSPost2010Prop49
280
     0
102
RTVSPost2010PropOp49
 70
     1
102
RTVSPost2010Prop50
 90
       50
102
RTVSPost2010PropOp50
 70
     1
102
RTVSPost2010Prop51ColorIndex
 90
      256
102
RTVSPost2010Prop51ColorRGB
 90
-16777216
102
RTVSPost2010PropOp51
 70
     0
102
RTVSPost2010Prop52
140
1.0
102
RTVSPost2010PropOp52
 70
     0
102
RTVSPost2010Prop53
 90
        2
102
RTVSPost2010PropOp53
 70
     1
102
RTVSPost2010Prop54
  1
strokes_ogs.tif
102
RTVSPost2010PropOp54
 70
     1
102
RTVSPost2010Prop55
280
     0
102
RTVSPost2010PropOp55
 70
     1
102
RTVSPost2010Prop56
140
1.0
102
RTVSPost2010PropOp56
 70
     1
102
RTVSPost2010Prop57
140
1.0
102
RTVSPost2010PropOp57
 70
     1
102
RTVSPropertyOp0
 70
     1
102
RTVSPropertyOp1
 70
     1
102
RTVSPropertyOp2
 70
     1
102
RTVSPropertyOp3
 70
     1
102
RTVSPropertyOp4
 70
     1
102
RTVSPropertyOp5
 70
     1
102
RTVSPropertyOp6
 70
     1
102
RTVSPropertyOp7
 70
     1
102
RTVSPropertyOp8
 70
     1
102
RTVSPropertyOp9
 70
     1
102
RTVSPropertyOp10
 70
     1
102
RTVSPropertyOp11
 70
     1
102
RTVSPropertyOp12
 70
     1
102
RTVSPropertyOp13
 70
     1
102
RTVSPropertyOp14
 70
     1
102
RTVSPropertyOp15
 70
     1
102
RTVSPropertyOp16
 70
     1
102
RTVSPropertyOp17
 70
     1
102
RTVSPropertyOp18
 70
     1
102
RTVSPropertyOp19
 70
     1
102
RTVSPropertyOp20
 70
     1
102
RTVSPropertyOp21
 70
     1
102
RTVSPropertyOp22
 70
     1
102
RTVSPropertyOp23
 70
     1
102
RTVSPropertyOp24
 70
     1
102
RTVSPropertyOp25
 70
     1
102
RTVSPropertyOp26
 70
     1
102
RTVSPropertyOp27
 70
     1
102
RTVSPropertyOp28
 70
     1
102
RTVSPropertyOp29
 70
     1
102
RTVSPropertyOp30
 70
     1
102
RTVSPropertyOp31
 70
     1
102
RTVSPropertyOp32
 70
     1
102
RTVSPropertyOp33
 70
     1
102
RTVSPropertyOp34
 70
     1
102
RTVSPropertyOp35
 70
     1
102
RTVSPropertyOp36
 70
     1
102
RTVSPropertyOp37
 70
     1
102
RTVSPropertyOp38
 70
     1
102
RTVSPropertyOp39
 70
     1
102
RTVSPropertyOp40
 70
     1
102
RTVSPropertyOp41
 70
     1
102
RTVSPropertyOp42
 70
     1
102
RTVSPropertyOp43
 70
     1
102
RTVSPropertyOp44
 70
     1
102
RTVSPropertyOp45
 70
     1
102
RTVSPropertyOp46
 70
     1
102
RTVSPropertyOp47
 70
     1
102
RTVSPropertyOp48
 70
     1
102
RTVSPropertyOp49
 70
     1
102
RTVSPropertyOp50
 70
     1
102
RTVSPropertyOp51
 70
     0
102
RTVSPropertyOp52
 70
     0
102
RTVSPropertyOp53
 70
     1
102
RTVSPropertyOp54
 70
     1
102
RTVSPropertyOp55
 70
     1
102
RTVSPropertyOp56
 70
     1
102
RTVSPropertyOp57
 70
     1
102
RTVSPropertyOp58
 70
     1
102
RTVSPropertyOp59
 70
     1
102
RTVSPropertyOp60
 70
     1
102
RTVSPropertyOp61
 70
     1
102
RTVSPropertyOp62
 70
     1
  0
XRECORD
  5
C5
102
{ACAD_REACTORS
330
C4
102
}
330
C4
100
AcDbXrecord
280
     1
102
RTVSPost2010Prop28
280
     0
102
RTVSPost2010PropOp28
 70
     1
102
RTVSPost2010Prop29
280
     1
102
RTVSPost2010PropOp29
 70
     1
102
RTVSPost2010Prop30
280
     1
102
RTVSPost2010PropOp30
 70
     1
102
RTVSPost2010Prop31
280
     0
102
RTVSPost2010PropOp31
 70
     1
102
RTVSPost2010Prop32
280
     0
102
RTVSPost2010PropOp32
 70
     1
102
RTVSPost2010Prop33
280
     0
102
RTVSPost2010PropOp33
 70
     1
102
RTVSPost2010Prop34
280
     0
102
RTVSPost2010PropOp34
 70
     1
102
RTVSPost2010Prop35
280
     0
102
RTVSPost2010PropOp35
 70
     1
102
RTVSPost2010Prop36
280
     0
102
RTVSPost2010PropOp36
 70
     1
102
RTVSPost2010Prop37
 90
       50
102
RTVSPost2010PropOp37
 70
     1
102
RTVSPost2010Prop38
140
0.0
102
RTVSPost2010PropOp38
 70
     1
102
RTVSPost2010Prop39
140
1.0
102
RTVSPost2010PropOp39
 70
     1
102
RTVSPost2010Prop40
 90
        0
102
RTVSPost2010PropOp40
 70
     1
102
RTVSPost2010Prop41ColorIndex
 90
       18
102
RTVSPost2010Prop41ColorRGB
 90
        0
102
RTVSPost2010PropOp41
 70
     1
102
RTVSPost2010Prop42
 90
       50
102
RTVSPost2010PropOp42
 70
     1
102
RTVSPost2010Prop43
 90
        3
102
RTVSPost2010PropOp43
 70
     1
102
RTVSPost2010Prop44ColorIndex
 90
        5
102
RTVSPost2010Prop44ColorRGB
 90
      255
102
RTVSPost2010PropOp44
 70
     1
102
RTVSPost2010Prop45
280
     0
102
RTVSPost2010PropOp45
 70
     1
102
RTVSPost2010Prop46
 90
       50
102
RTVSPost2010PropOp46
 70
     1
102
RTVSPost2010Prop47
 90
       50
102
RTVSPost2010PropOp47
 70
     1
102
RTVSPost2010Prop48
 90
       50
102
RTVSPost2010PropOp48
 70
     1
102
RTVSPost2010Prop49
280
     0
102
RTVSPost2010PropOp49
 70
     1
102
RTVSPost2010Prop50
 90
       50
102
RTVSPost2010PropOp50
 70
     1
102
RTVSPost2010Prop51ColorIndex
 90
      256
102
RTVSPost2010Prop51ColorRGB
 90
-16777216
102
RTVSPost2010PropOp51
 70
     0
102
RTVSPost2010Prop52
140
1.0
102
RTVSPost2010PropOp52
 70
     0
102
RTVSPost2010Prop53
 90
        2
102
RTVSPost2010PropOp53
 70
     1
102
RTVSPost2010Prop54
  1
strokes_ogs.tif
102
RTVSPost2010PropOp54
 70
     1
102
RTVSPost2010Prop55
280
     0
102
RTVSPost2010PropOp55
 70
     1
102
RTVSPost2010Prop56
140
1.0
102
RTVSPost2010PropOp56
 70
     1
102
RTVSPost2010Prop57
140
1.0
102
RTVSPost2010PropOp57
 70
     1
102
RTVSPropertyOp0
 70
     1
102
RTVSPropertyOp1
 70
     1
102
RTVSPropertyOp2
 70
     1
102
RTVSPropertyOp3
 70
     1
102
RTVSPropertyOp4
 70
     1
102
RTVSPropertyOp5
 70
     1
102
RTVSPropertyOp6
 70
     1
102
RTVSPropertyOp7
 70
     1
102
RTVSPropertyOp8
 70
     1
102
RTVSPropertyOp9
 70
     1
102
RTVSPropertyOp10
 70
     1
102
RTVSPropertyOp11
 70
     1
102
RTVSPropertyOp12
 70
     1
102
RTVSPropertyOp13
 70
     1
102
RTVSPropertyOp14
 70
     1
102
RTVSPropertyOp15
 70
     1
102
RTVSPropertyOp16
 70
     1
102
RTVSPropertyOp17
 70
     1
102
RTVSPropertyOp18
 70
     1
102
RTVSPropertyOp19
 70
     1
102
RTVSPropertyOp20
 70
     1
102
RTVSPropertyOp21
 70
     1
102
RTVSPropertyOp22
 70
     1
102
RTVSPropertyOp23
 70
     1
102
RTVSPropertyOp24
 70
     1
102
RTVSPropertyOp25
 70
     1
102
RTVSPropertyOp26
 70
     1
102
RTVSPropertyOp27
 70
     1
102
RTVSPropertyOp28
 70
     1
102
RTVSPropertyOp29
 70
     1
102
RTVSPropertyOp30
 70
     1
102
RTVSPropertyOp31
 70
     1
102
RTVSPropertyOp32
 70
     1
102
RTVSPropertyOp33
 70
     1
102
RTVSPropertyOp34
 70
     1
102
RTVSPropertyOp35
 70
     1
102
RTVSPropertyOp36
 70
     1
102
RTVSPropertyOp37
 70
     1
102
RTVSPropertyOp38
 70
     1
102
RTVSPropertyOp39
 70
     1
102
RTVSPropertyOp40
 70
     1
102
RTVSPropertyOp41
 70
     1
102
RTVSPropertyOp42
 70
     1
102
RTVSPropertyOp43
 70
     1
102
RTVSPropertyOp44
 70
     1
102
RTVSPropertyOp45
 70
     1
102
RTVSPropertyOp46
 70
     1
102
RTVSPropertyOp47
 70
     1
102
RTVSPropertyOp48
 70
     1
102
RTVSPropertyOp49
 70
     1
102
RTVSPropertyOp50
 70
     1
102
RTVSPropertyOp51
 70
     0
102
RTVSPropertyOp52
 70
     0
102
RTVSPropertyOp53
 70
     1
102
RTVSPropertyOp54
 70
     1
102
RTVSPropertyOp55
 70
     1
102
RTVSPropertyOp56
 70
     1
102
RTVSPropertyOp57
 70
     1
102
RTVSPropertyOp58
 70
     1
102
RTVSPropertyOp59
 70
     1
102
RTVSPropertyOp60
 70
     1
102
RTVSPropertyOp61
 70
     1
102
RTVSPropertyOp62
 70
     1
  0
XRECORD
  5
E1
102
{ACAD_REACTORS
330
E0
102
}
330
E0
100
AcDbXrecord
280
     1
102
RTVSPost2010Prop28
280
     0
102
RTVSPost2010PropOp28
 70
     0
102
RTVSPost2010Prop29
280
     1
102
RTVSPost2010PropOp29
 70
     0
102
RTVSPost2010Prop30
280
     1
102
RTVSPost2010PropOp30
 70
     0
102
RTVSPost2010Prop31
280
     0
102
RTVSPost2010PropOp31
 70
     0
102
RTVSPost2010Prop32
280
     0
102
RTVSPost2010PropOp32
 70
     0
102
RTVSPost2010Prop33
280
     0
102
RTVSPost2010PropOp33
 70
     0
102
RTVSPost2010Prop34
280
     0
102
RTVSPost2010PropOp34
 70
     0
102
RTVSPost2010Prop35
280
     0
102
RTVSPost2010PropOp35
 70
     0
102
RTVSPost2010Prop36
280
     0
102
RTVSPost2010PropOp36
 70
     0
102
RTVSPost2010Prop37
 90
       50
102
RTVSPost2010PropOp37
 70
     0
102
RTVSPost2010Prop38
140
0.0
102
RTVSPost2010PropOp38
 70
     0
102
RTVSPost2010Prop39
140
1.0
102
RTVSPost2010PropOp39
 70
     0
102
RTVSPost2010Prop40
 90
        0
102
RTVSPost2010PropOp40
 70
     0
102
RTVSPost2010Prop41ColorIndex
 90
       18
102
RTVSPost2010Prop41ColorRGB
 90
        0
102
RTVSPost2010PropOp41
 70
     0
102
RTVSPost2010Prop42
 90
       50
102
RTVSPost2010PropOp42
 70
     0
102
RTVSPost2010Prop43
 90
        3
102
RTVSPost2010PropOp43
 70
     0
102
RTVSPost2010Prop44ColorIndex
 90
        5
102
RTVSPost2010Prop44ColorRGB
 90
      255
102
RTVSPost2010PropOp44
 70
     0
102
RTVSPost2010Prop45
280
     0
102
RTVSPost2010PropOp45
 70
     0
102
RTVSPost2010Prop46
 90
       50
102
RTVSPost2010PropOp46
 70
     0
102
RTVSPost2010Prop47
 90
       50
102
RTVSPost2010PropOp47
 70
     0
102
RTVSPost2010Prop48
 90
       50
102
RTVSPost2010PropOp48
 70
     0
102
RTVSPost2010Prop49
280
     0
102
RTVSPost2010PropOp49
 70
     0
102
RTVSPost2010Prop50
 90
       50
102
RTVSPost2010PropOp50
 70
     0
102
RTVSPost2010Prop51ColorIndex
 90
      256
102
RTVSPost2010Prop51ColorRGB
 90
-16777216
102
RTVSPost2010PropOp51
 70
     0
102
RTVSPost2010Prop52
140
1.0
102
RTVSPost2010PropOp52
 70
     0
102
RTVSPost2010Prop53
 90
        2
102
RTVSPost2010PropOp53
 70
     0
102
RTVSPost2010Prop54
  1
strokes_ogs.tif
102
RTVSPost2010PropOp54
 70
     0
102
RTVSPost2010Prop55
280
     0
102
RTVSPost2010PropOp55
 70
     0
102
RTVSPost2010Prop56
140
1.0
102
RTVSPost2010PropOp56
 70
     0
102
RTVSPost2010Prop57
140
1.0
102
RTVSPost2010PropOp57
 70
     0
102
RTVSPropertyOp0
 70
     0
102
RTVSPropertyOp1
 70
     0
102
RTVSPropertyOp2
 70
     0
102
RTVSPropertyOp3
 70
     0
102
RTVSPropertyOp4
 70
     0
102
RTVSPropertyOp5
 70
     0
102
RTVSPropertyOp6
 70
     0
102
RTVSPropertyOp7
 70
     0
102
RTVSPropertyOp8
 70
     0
102
RTVSPropertyOp9
 70
     0
102
RTVSPropertyOp10
 70
     0
102
RTVSPropertyOp11
 70
     0
102
RTVSPropertyOp12
 70
     0
102
RTVSPropertyOp13
 70
     0
102
RTVSPropertyOp14
 70
     2
102
RTVSPropertyOp15
 70
     0
102
RTVSPropertyOp16
 70
     0
102
RTVSPropertyOp17
 70
     0
102
RTVSPropertyOp18
 70
     0
102
RTVSPropertyOp19
 70
     0
102
RTVSPropertyOp20
 70
     0
102
RTVSPropertyOp21
 70
     0
102
RTVSPropertyOp22
 70
     0
102
RTVSPropertyOp23
 70
     0
102
RTVSPropertyOp24
 70
     0
102
RTVSPropertyOp25
 70
     0
102
RTVSPropertyOp26
 70
     0
102
RTVSPropertyOp27
 70
     0
102
RTVSPropertyOp28
 70
     0
102
RTVSPropertyOp29
 70
     0
102
RTVSPropertyOp30
 70
     0
102
RTVSPropertyOp31
 70
     0
102
RTVSPropertyOp32
 70
     0
102
RTVSPropertyOp33
 70
     0
102
RTVSPropertyOp34
 70
     0
102
RTVSPropertyOp35
 70
     0
102
RTVSPropertyOp36
 70
     0
102
RTVSPropertyOp37
 70
     0
102
RTVSPropertyOp38
 70
     0
102
RTVSPropertyOp39
 70
     0
102
RTVSPropertyOp40
 70
     0
102
RTVSPropertyOp41
 70
     0
102
RTVSPropertyOp42
 70
     0
102
RTVSPropertyOp43
 70
     0
102
RTVSPropertyOp44
 70
     0
102
RTVSPropertyOp45
 70
     0
102
RTVSPropertyOp46
 70
     0
102
RTVSPropertyOp47
 70
     0
102
RTVSPropertyOp48
 70
     0
102
RTVSPropertyOp49
 70
     0
102
RTVSPropertyOp50
 70
     0
102
RTVSPropertyOp51
 70
     0
102
RTVSPropertyOp52
 70
     0
102
RTVSPropertyOp53
 70
     0
102
RTVSPropertyOp54
 70
     0
102
RTVSPropertyOp55
 70
     0
102
RTVSPropertyOp56
 70
     0
102
RTVSPropertyOp57
 70
     0
102
RTVSPropertyOp58
 70
     0
102
RTVSPropertyOp59
 70
     0
102
RTVSPropertyOp60
 70
     0
102
RTVSPropertyOp61
 70
     0
102
RTVSPropertyOp62
 70
     0
  0
XRECORD
  5
D1
102
{ACAD_REACTORS
330
D0
102
}
330
D0
100
AcDbXrecord
280
     1
102
RTVSPost2010Prop28
280
     0
102
RTVSPost2010PropOp28
 70
     1
102
RTVSPost2010Prop29
280
     1
102
RTVSPost2010PropOp29
 70
     1
102
RTVSPost2010Prop30
280
     1
102
RTVSPost2010PropOp30
 70
     1
102
RTVSPost2010Prop31
280
     0
102
RTVSPost2010PropOp31
 70
     1
102
RTVSPost2010Prop32
280
     0
102
RTVSPost2010PropOp32
 70
     1
102
RTVSPost2010Prop33
280
     0
102
RTVSPost2010PropOp33
 70
     1
102
RTVSPost2010Prop34
280
     0
102
RTVSPost2010PropOp34
 70
     1
102
RTVSPost2010Prop35
280
     0
102
RTVSPost2010PropOp35
 70
     1
102
RTVSPost2010Prop36
280
     0
102
RTVSPost2010PropOp36
 70
     1
102
RTVSPost2010Prop37
 90
       50
102
RTVSPost2010PropOp37
 70
     1
102
RTVSPost2010Prop38
140
0.0
102
RTVSPost2010PropOp38
 70
     1
102
RTVSPost2010Prop39
140
1.0
102
RTVSPost2010PropOp39
 70
     1
102
RTVSPost2010Prop40
 90
        0
102
RTVSPost2010PropOp40
 70
     1
102
RTVSPost2010Prop41ColorIndex
 90
       18
102
RTVSPost2010Prop41ColorRGB
 90
        0
102
RTVSPost2010PropOp41
 70
     1
102
RTVSPost2010Prop42
 90
       50
102
RTVSPost2010PropOp42
 70
     1
102
RTVSPost2010Prop43
 90
        3
102
RTVSPost2010PropOp43
 70
     1
102
RTVSPost2010Prop44ColorIndex
 90
        5
102
RTVSPost2010Prop44ColorRGB
 90
      255
102
RTVSPost2010PropOp44
 70
     1
102
RTVSPost2010Prop45
280
     0
102
RTVSPost2010PropOp45
 70
     1
102
RTVSPost2010Prop46
 90
       50
102
RTVSPost2010PropOp46
 70
     1
102
RTVSPost2010Prop47
 90
       50
102
RTVSPost2010PropOp47
 70
     1
102
RTVSPost2010Prop48
 90
       50
102
RTVSPost2010PropOp48
 70
     1
102
RTVSPost2010Prop49
280
     0
102
RTVSPost2010PropOp49
 70
     1
102
RTVSPost2010Prop50
 90
       50
102
RTVSPost2010PropOp50
 70
     1
102
RTVSPost2010Prop51ColorIndex
 90
      256
102
RTVSPost2010Prop51ColorRGB
 90
-16777216
102
RTVSPost2010PropOp51
 70
     0
102
RTVSPost2010Prop52
140
1.0
102
RTVSPost2010PropOp52
 70
     0
102
RTVSPost2010Prop53
 90
        2
102
RTVSPost2010PropOp53
 70
     1
102
RTVSPost2010Prop54
  1
strokes_ogs.tif
102
RTVSPost2010PropOp54
 70
     1
102
RTVSPost2010Prop55
280
     0
102
RTVSPost2010PropOp55
 70
     1
102
RTVSPost2010Prop56
140
1.0
102
RTVSPost2010PropOp56
 70
     1
102
RTVSPost2010Prop57
140
1.0
102
RTVSPost2010PropOp57
 70
     1
102
RTVSPropertyOp0
 70
     1
102
RTVSPropertyOp1
 70
     1
102
RTVSPropertyOp2
 70
     1
102
RTVSPropertyOp3
 70
     1
102
RTVSPropertyOp4
 70
     1
102
RTVSPropertyOp5
 70
     1
102
RTVSPropertyOp6
 70
     1
102
RTVSPropertyOp7
 70
     1
102
RTVSPropertyOp8
 70
     1
102
RTVSPropertyOp9
 70
     1
102
RTVSPropertyOp10
 70
     1
102
RTVSPropertyOp11
 70
     1
102
RTVSPropertyOp12
 70
     1
102
RTVSPropertyOp13
 70
     1
102
RTVSPropertyOp14
 70
     1
102
RTVSPropertyOp15
 70
     1
102
RTVSPropertyOp16
 70
     1
102
RTVSPropertyOp17
 70
     1
102
RTVSPropertyOp18
 70
     1
102
RTVSPropertyOp19
 70
     1
102
RTVSPropertyOp20
 70
     1
102
RTVSPropertyOp21
 70
     1
102
RTVSPropertyOp22
 70
     1
102
RTVSPropertyOp23
 70
     1
102
RTVSPropertyOp24
 70
     1
102
RTVSPropertyOp25
 70
     1
102
RTVSPropertyOp26
 70
     1
102
RTVSPropertyOp27
 70
     1
102
RTVSPropertyOp28
 70
     1
102
RTVSPropertyOp29
 70
     1
102
RTVSPropertyOp30
 70
     1
102
RTVSPropertyOp31
 70
     1
102
RTVSPropertyOp32
 70
     1
102
RTVSPropertyOp33
 70
     1
102
RTVSPropertyOp34
 70
     1
102
RTVSPropertyOp35
 70
     1
102
RTVSPropertyOp36
 70
     1
102
RTVSPropertyOp37
 70
     1
102
RTVSPropertyOp38
 70
     1
102
RTVSPropertyOp39
 70
     1
102
RTVSPropertyOp40
 70
     1
102
RTVSPropertyOp41
 70
     1
102
RTVSPropertyOp42
 70
     1
102
RTVSPropertyOp43
 70
     1
102
RTVSPropertyOp44
 70
     1
102
RTVSPropertyOp45
 70
     1
102
RTVSPropertyOp46
 70
     1
102
RTVSPropertyOp47
 70
     1
102
RTVSPropertyOp48
 70
     1
102
RTVSPropertyOp49
 70
     1
102
RTVSPropertyOp50
 70
     1
102
RTVSPropertyOp51
 70
     0
102
RTVSPropertyOp52
 70
     0
102
RTVSPropertyOp53
 70
     1
102
RTVSPropertyOp54
 70
     1
102
RTVSPropertyOp55
 70
     1
102
RTVSPropertyOp56
 70
     1
102
RTVSPropertyOp57
 70
     1
102
RTVSPropertyOp58
 70
     1
102
RTVSPropertyOp59
 70
     1
102
RTVSPropertyOp60
 70
     1
102
RTVSPropertyOp61
 70
     1
102
RTVSPropertyOp62
 70
     1
  0
XRECORD
  5
E3
102
{ACAD_REACTORS
330
E2
102
}
330
E2
100
AcDbXrecord
280
     1
102
RTVSPost2010Prop28
280
     0
102
RTVSPost2010PropOp28
 70
     0
102
RTVSPost2010Prop29
280
     1
102
RTVSPost2010PropOp29
 70
     0
102
RTVSPost2010Prop30
280
     1
102
RTVSPost2010PropOp30
 70
     0
102
RTVSPost2010Prop31
280
     0
102
RTVSPost2010PropOp31
 70
     0
102
RTVSPost2010Prop32
280
     0
102
RTVSPost2010PropOp32
 70
     0
102
RTVSPost2010Prop33
280
     0
102
RTVSPost2010PropOp33
 70
     0
102
RTVSPost2010Prop34
280
     0
102
RTVSPost2010PropOp34
 70
     0
102
RTVSPost2010Prop35
280
     0
102
RTVSPost2010PropOp35
 70
     0
102
RTVSPost2010Prop36
280
     0
102
RTVSPost2010PropOp36
 70
     0
102
RTVSPost2010Prop37
 90
       50
102
RTVSPost2010PropOp37
 70
     0
102
RTVSPost2010Prop38
140
0.0
102
RTVSPost2010PropOp38
 70
     0
102
RTVSPost2010Prop39
140
1.0
102
RTVSPost2010PropOp39
 70
     0
102
RTVSPost2010Prop40
 90
        0
102
RTVSPost2010PropOp40
 70
     0
102
RTVSPost2010Prop41ColorIndex
 90
       18
102
RTVSPost2010Prop41ColorRGB
 90
        0
102
RTVSPost2010PropOp41
 70
     0
102
RTVSPost2010Prop42
 90
       50
102
RTVSPost2010PropOp42
 70
     0
102
RTVSPost2010Prop43
 90
        3
102
RTVSPost2010PropOp43
 70
     0
102
RTVSPost2010Prop44ColorIndex
 90
        5
102
RTVSPost2010Prop44ColorRGB
 90
      255
102
RTVSPost2010PropOp44
 70
     0
102
RTVSPost2010Prop45
280
     0
102
RTVSPost2010PropOp45
 70
     0
102
RTVSPost2010Prop46
 90
       50
102
RTVSPost2010PropOp46
 70
     0
102
RTVSPost2010Prop47
 90
       50
102
RTVSPost2010PropOp47
 70
     0
102
RTVSPost2010Prop48
 90
       50
102
RTVSPost2010PropOp48
 70
     0
102
RTVSPost2010Prop49
280
     0
102
RTVSPost2010PropOp49
 70
     0
102
RTVSPost2010Prop50
 90
       50
102
RTVSPost2010PropOp50
 70
     0
102
RTVSPost2010Prop51ColorIndex
 90
      256
102
RTVSPost2010Prop51ColorRGB
 90
-16777216
102
RTVSPost2010PropOp51
 70
     0
102
RTVSPost2010Prop52
140
1.0
102
RTVSPost2010PropOp52
 70
     0
102
RTVSPost2010Prop53
 90
        2
102
RTVSPost2010PropOp53
 70
     0
102
RTVSPost2010Prop54
  1
strokes_ogs.tif
102
RTVSPost2010PropOp54
 70
     0
102
RTVSPost2010Prop55
280
     0
102
RTVSPost2010PropOp55
 70
     0
102
RTVSPost2010Prop56
140
1.0
102
RTVSPost2010PropOp56
 70
     0
102
RTVSPost2010Prop57
140
1.0
102
RTVSPost2010PropOp57
 70
     0
102
RTVSPropertyOp0
 70
     0
102
RTVSPropertyOp1
 70
     0
102
RTVSPropertyOp2
 70
     0
102
RTVSPropertyOp3
 70
     0
102
RTVSPropertyOp4
 70
     0
102
RTVSPropertyOp5
 70
     0
102
RTVSPropertyOp6
 70
     0
102
RTVSPropertyOp7
 70
     0
102
RTVSPropertyOp8
 70
     0
102
RTVSPropertyOp9
 70
     0
102
RTVSPropertyOp10
 70
     0
102
RTVSPropertyOp11
 70
     0
102
RTVSPropertyOp12
 70
     0
102
RTVSPropertyOp13
 70
     0
102
RTVSPropertyOp14
 70
     2
102
RTVSPropertyOp15
 70
     0
102
RTVSPropertyOp16
 70
     0
102
RTVSPropertyOp17
 70
     0
102
RTVSPropertyOp18
 70
     0
102
RTVSPropertyOp19
 70
     0
102
RTVSPropertyOp20
 70
     0
102
RTVSPropertyOp21
 70
     0
102
RTVSPropertyOp22
 70
     0
102
RTVSPropertyOp23
 70
     0
102
RTVSPropertyOp24
 70
     0
102
RTVSPropertyOp25
 70
     0
102
RTVSPropertyOp26
 70
     0
102
RTVSPropertyOp27
 70
     0
102
RTVSPropertyOp28
 70
     0
102
RTVSPropertyOp29
 70
     0
102
RTVSPropertyOp30
 70
     0
102
RTVSPropertyOp31
 70
     0
102
RTVSPropertyOp32
 70
     0
102
RTVSPropertyOp33
 70
     0
102
RTVSPropertyOp34
 70
     0
102
RTVSPropertyOp35
 70
     0
102
RTVSPropertyOp36
 70
     0
102
RTVSPropertyOp37
 70
     0
102
RTVSPropertyOp38
 70
     0
102
RTVSPropertyOp39
 70
     0
102
RTVSPropertyOp40
 70
     0
102
RTVSPropertyOp41
 70
     0
102
RTVSPropertyOp42
 70
     0
102
RTVSPropertyOp43
 70
     0
102
RTVSPropertyOp44
 70
     0
102
RTVSPropertyOp45
 70
     0
102
RTVSPropertyOp46
 70
     0
102
RTVSPropertyOp47
 70
     0
102
RTVSPropertyOp48
 70
     0
102
RTVSPropertyOp49
 70
     0
102
RTVSPropertyOp50
 70
     0
102
RTVSPropertyOp51
 70
     0
102
RTVSPropertyOp52
 70
     0
102
RTVSPropertyOp53
 70
     0
102
RTVSPropertyOp54
 70
     0
102
RTVSPropertyOp55
 70
     0
102
RTVSPropertyOp56
 70
     0
102
RTVSPropertyOp57
 70
     0
102
RTVSPropertyOp58
 70
     0
102
RTVSPropertyOp59
 70
     0
102
RTVSPropertyOp60
 70
     0
102
RTVSPropertyOp61
 70
     0
102
RTVSPropertyOp62
 70
     0
  0
XRECORD
  5
C9
102
{ACAD_REACTORS
330
C8
102
}
330
C8
100
AcDbXrecord
280
     1
102
RTVSPost2010Prop28
280
     0
102
RTVSPost2010PropOp28
 70
     1
102
RTVSPost2010Prop29
280
     1
102
RTVSPost2010PropOp29
 70
     1
102
RTVSPost2010Prop30
280
     1
102
RTVSPost2010PropOp30
 70
     1
102
RTVSPost2010Prop31
280
     0
102
RTVSPost2010PropOp31
 70
     1
102
RTVSPost2010Prop32
280
     0
102
RTVSPost2010PropOp32
 70
     1
102
RTVSPost2010Prop33
280
     0
102
RTVSPost2010PropOp33
 70
     1
102
RTVSPost2010Prop34
280
     0
102
RTVSPost2010PropOp34
 70
     1
102
RTVSPost2010Prop35
280
     0
102
RTVSPost2010PropOp35
 70
     1
102
RTVSPost2010Prop36
280
     0
102
RTVSPost2010PropOp36
 70
     1
102
RTVSPost2010Prop37
 90
       50
102
RTVSPost2010PropOp37
 70
     1
102
RTVSPost2010Prop38
140
0.0
102
RTVSPost2010PropOp38
 70
     1
102
RTVSPost2010Prop39
140
1.0
102
RTVSPost2010PropOp39
 70
     1
102
RTVSPost2010Prop40
 90
        0
102
RTVSPost2010PropOp40
 70
     1
102
RTVSPost2010Prop41ColorIndex
 90
       18
102
RTVSPost2010Prop41ColorRGB
 90
        0
102
RTVSPost2010PropOp41
 70
     1
102
RTVSPost2010Prop42
 90
       50
102
RTVSPost2010PropOp42
 70
     1
102
RTVSPost2010Prop43
 90
        3
102
RTVSPost2010PropOp43
 70
     1
102
RTVSPost2010Prop44ColorIndex
 90
        5
102
RTVSPost2010Prop44ColorRGB
 90
      255
102
RTVSPost2010PropOp44
 70
     1
102
RTVSPost2010Prop45
280
     0
102
RTVSPost2010PropOp45
 70
     1
102
RTVSPost2010Prop46
 90
       50
102
RTVSPost2010PropOp46
 70
     1
102
RTVSPost2010Prop47
 90
       50
102
RTVSPost2010PropOp47
 70
     1
102
RTVSPost2010Prop48
 90
       50
102
RTVSPost2010PropOp48
 70
     1
102
RTVSPost2010Prop49
280
     0
102
RTVSPost2010PropOp49
 70
     1
102
RTVSPost2010Prop50
 90
       50
102
RTVSPost2010PropOp50
 70
     1
102
RTVSPost2010Prop51ColorIndex
 90
      256
102
RTVSPost2010Prop51ColorRGB
 90
-16777216
102
RTVSPost2010PropOp51
 70
     0
102
RTVSPost2010Prop52
140
1.0
102
RTVSPost2010PropOp52
 70
     0
102
RTVSPost2010Prop53
 90
        2
102
RTVSPost2010PropOp53
 70
     1
102
RTVSPost2010Prop54
  1
strokes_ogs.tif
102
RTVSPost2010PropOp54
 70
     1
102
RTVSPost2010Prop55
280
     0
102
RTVSPost2010PropOp55
 70
     1
102
RTVSPost2010Prop56
140
1.0
102
RTVSPost2010PropOp56
 70
     1
102
RTVSPost2010Prop57
140
1.0
102
RTVSPost2010PropOp57
 70
     1
102
RTVSPropertyOp0
 70
     1
102
RTVSPropertyOp1
 70
     1
102
RTVSPropertyOp2
 70
     1
102
RTVSPropertyOp3
 70
     1
102
RTVSPropertyOp4
 70
     1
102
RTVSPropertyOp5
 70
     1
102
RTVSPropertyOp6
 70
     1
102
RTVSPropertyOp7
 70
     1
102
RTVSPropertyOp8
 70
     1
102
RTVSPropertyOp9
 70
     1
102
RTVSPropertyOp10
 70
     1
102
RTVSPropertyOp11
 70
     1
102
RTVSPropertyOp12
 70
     1
102
RTVSPropertyOp13
 70
     1
102
RTVSPropertyOp14
 70
     1
102
RTVSPropertyOp15
 70
     1
102
RTVSPropertyOp16
 70
     1
102
RTVSPropertyOp17
 70
     1
102
RTVSPropertyOp18
 70
     1
102
RTVSPropertyOp19
 70
     1
102
RTVSPropertyOp20
 70
     1
102
RTVSPropertyOp21
 70
     1
102
RTVSPropertyOp22
 70
     1
102
RTVSPropertyOp23
 70
     1
102
RTVSPropertyOp24
 70
     1
102
RTVSPropertyOp25
 70
     1
102
RTVSPropertyOp26
 70
     1
102
RTVSPropertyOp27
 70
     1
102
RTVSPropertyOp28
 70
     1
102
RTVSPropertyOp29
 70
     1
102
RTVSPropertyOp30
 70
     1
102
RTVSPropertyOp31
 70
     1
102
RTVSPropertyOp32
 70
     1
102
RTVSPropertyOp33
 70
     1
102
RTVSPropertyOp34
 70
     1
102
RTVSPropertyOp35
 70
     1
102
RTVSPropertyOp36
 70
     1
102
RTVSPropertyOp37
 70
     1
102
RTVSPropertyOp38
 70
     1
102
RTVSPropertyOp39
 70
     1
102
RTVSPropertyOp40
 70
     1
102
RTVSPropertyOp41
 70
     1
102
RTVSPropertyOp42
 70
     1
102
RTVSPropertyOp43
 70
     1
102
RTVSPropertyOp44
 70
     1
102
RTVSPropertyOp45
 70
     1
102
RTVSPropertyOp46
 70
     1
102
RTVSPropertyOp47
 70
     1
102
RTVSPropertyOp48
 70
     1
102
RTVSPropertyOp49
 70
     1
102
RTVSPropertyOp50
 70
     1
102
RTVSPropertyOp51
 70
     0
102
RTVSPropertyOp52
 70
     0
102
RTVSPropertyOp53
 70
     1
102
RTVSPropertyOp54
 70
     1
102
RTVSPropertyOp55
 70
     1
102
RTVSPropertyOp56
 70
     1
102
RTVSPropertyOp57
 70
     1
102
RTVSPropertyOp58
 70
     1
102
RTVSPropertyOp59
 70
     1
102
RTVSPropertyOp60
 70
     1
102
RTVSPropertyOp61
 70
     1
102
RTVSPropertyOp62
 70
     1
  0
XRECORD
  5
DF
102
{ACAD_REACTORS
330
DE
102
}
330
DE
100
AcDbXrecord
280
     1
102
RTVSPost2010Prop28
280
     0
102
RTVSPost2010PropOp28
 70
     1
102
RTVSPost2010Prop29
280
     1
102
RTVSPost2010PropOp29
 70
     1
102
RTVSPost2010Prop30
280
     1
102
RTVSPost2010PropOp30
 70
     1
102
RTVSPost2010Prop31
280
     0
102
RTVSPost2010PropOp31
 70
     1
102
RTVSPost2010Prop32
280
     0
102
RTVSPost2010PropOp32
 70
     1
102
RTVSPost2010Prop33
280
     0
102
RTVSPost2010PropOp33
 70
     1
102
RTVSPost2010Prop34
280
     0
102
RTVSPost2010PropOp34
 70
     1
102
RTVSPost2010Prop35
280
     0
102
RTVSPost2010PropOp35
 70
     1
102
RTVSPost2010Prop36
280
     0
102
RTVSPost2010PropOp36
 70
     1
102
RTVSPost2010Prop37
 90
       50
102
RTVSPost2010PropOp37
 70
     1
102
RTVSPost2010Prop38
140
0.0
102
RTVSPost2010PropOp38
 70
     1
102
RTVSPost2010Prop39
140
1.0
102
RTVSPost2010PropOp39
 70
     1
102
RTVSPost2010Prop40
 90
        0
102
RTVSPost2010PropOp40
 70
     1
102
RTVSPost2010Prop41ColorIndex
 90
       18
102
RTVSPost2010Prop41ColorRGB
 90
        0
102
RTVSPost2010PropOp41
 70
     1
102
RTVSPost2010Prop42
 90
       50
102
RTVSPost2010PropOp42
 70
     1
102
RTVSPost2010Prop43
 90
        3
102
RTVSPost2010PropOp43
 70
     1
102
RTVSPost2010Prop44ColorIndex
 90
        5
102
RTVSPost2010Prop44ColorRGB
 90
      255
102
RTVSPost2010PropOp44
 70
     1
102
RTVSPost2010Prop45
280
     0
102
RTVSPost2010PropOp45
 70
     1
102
RTVSPost2010Prop46
 90
       50
102
RTVSPost2010PropOp46
 70
     1
102
RTVSPost2010Prop47
 90
       50
102
RTVSPost2010PropOp47
 70
     1
102
RTVSPost2010Prop48
 90
       50
102
RTVSPost2010PropOp48
 70
     1
102
RTVSPost2010Prop49
280
     0
102
RTVSPost2010PropOp49
 70
     1
102
RTVSPost2010Prop50
 90
       50
102
RTVSPost2010PropOp50
 70
     1
102
RTVSPost2010Prop51ColorIndex
 90
      256
102
RTVSPost2010Prop51ColorRGB
 90
-16777216
102
RTVSPost2010PropOp51
 70
     0
102
RTVSPost2010Prop52
140
1.0
102
RTVSPost2010PropOp52
 70
     0
102
RTVSPost2010Prop53
 90
        2
102
RTVSPost2010PropOp53
 70
     1
102
RTVSPost2010Prop54
  1
strokes_ogs.tif
102
RTVSPost2010PropOp54
 70
     1
102
RTVSPost2010Prop55
280
     0
102
RTVSPost2010PropOp55
 70
     1
102
RTVSPost2010Prop56
140
1.0
102
RTVSPost2010PropOp56
 70
     1
102
RTVSPost2010Prop57
140
1.0
102
RTVSPost2010PropOp57
 70
     1
102
RTVSPropertyOp0
 70
     1
102
RTVSPropertyOp1
 70
     1
102
RTVSPropertyOp2
 70
     1
102
RTVSPropertyOp3
 70
     1
102
RTVSPropertyOp4
 70
     1
102
RTVSPropertyOp5
 70
     1
102
RTVSPropertyOp6
 70
     1
102
RTVSPropertyOp7
 70
     1
102
RTVSPropertyOp8
 70
     1
102
RTVSPropertyOp9
 70
     1
102
RTVSPropertyOp10
 70
     1
102
RTVSPropertyOp11
 70
     1
102
RTVSPropertyOp12
 70
     1
102
RTVSPropertyOp13
 70
     1
102
RTVSPropertyOp14
 70
     1
102
RTVSPropertyOp15
 70
     1
102
RTVSPropertyOp16
 70
     1
102
RTVSPropertyOp17
 70
     1
102
RTVSPropertyOp18
 70
     1
102
RTVSPropertyOp19
 70
     1
102
RTVSPropertyOp20
 70
     1
102
RTVSPropertyOp21
 70
     1
102
RTVSPropertyOp22
 70
     1
102
RTVSPropertyOp23
 70
     1
102
RTVSPropertyOp24
 70
     1
102
RTVSPropertyOp25
 70
     1
102
RTVSPropertyOp26
 70
     1
102
RTVSPropertyOp27
 70
     1
102
RTVSPropertyOp28
 70
     1
102
RTVSPropertyOp29
 70
     1
102
RTVSPropertyOp30
 70
     1
102
RTVSPropertyOp31
 70
     1
102
RTVSPropertyOp32
 70
     1
102
RTVSPropertyOp33
 70
     1
102
RTVSPropertyOp34
 70
     1
102
RTVSPropertyOp35
 70
     1
102
RTVSPropertyOp36
 70
     1
102
RTVSPropertyOp37
 70
     1
102
RTVSPropertyOp38
 70
     1
102
RTVSPropertyOp39
 70
     1
102
RTVSPropertyOp40
 70
     1
102
RTVSPropertyOp41
 70
     1
102
RTVSPropertyOp42
 70
     1
102
RTVSPropertyOp43
 70
     1
102
RTVSPropertyOp44
 70
     1
102
RTVSPropertyOp45
 70
     1
102
RTVSPropertyOp46
 70
     1
102
RTVSPropertyOp47
 70
     1
102
RTVSPropertyOp48
 70
     1
102
RTVSPropertyOp49
 70
     1
102
RTVSPropertyOp50
 70
     1
102
RTVSPropertyOp51
 70
     0
102
RTVSPropertyOp52
 70
     0
102
RTVSPropertyOp53
 70
     1
102
RTVSPropertyOp54
 70
     1
102
RTVSPropertyOp55
 70
     1
102
RTVSPropertyOp56
 70
     1
102
RTVSPropertyOp57
 70
     1
102
RTVSPropertyOp58
 70
     1
102
RTVSPropertyOp59
 70
     1
102
RTVSPropertyOp60
 70
     1
102
RTVSPropertyOp61
 70
     1
102
RTVSPropertyOp62
 70
     1
  0
XRECORD
  5
DD
102
{ACAD_REACTORS
330
DC
102
}
330
DC
100
AcDbXrecord
280
     1
102
RTVSPost2010Prop28
280
     0
102
RTVSPost2010PropOp28
 70
     1
102
RTVSPost2010Prop29
280
     1
102
RTVSPost2010PropOp29
 70
     1
102
RTVSPost2010Prop30
280
     1
102
RTVSPost2010PropOp30
 70
     1
102
RTVSPost2010Prop31
280
     0
102
RTVSPost2010PropOp31
 70
     1
102
RTVSPost2010Prop32
280
     0
102
RTVSPost2010PropOp32
 70
     1
102
RTVSPost2010Prop33
280
     0
102
RTVSPost2010PropOp33
 70
     1
102
RTVSPost2010Prop34
280
     0
102
RTVSPost2010PropOp34
 70
     1
102
RTVSPost2010Prop35
280
     0
102
RTVSPost2010PropOp35
 70
     1
102
RTVSPost2010Prop36
280
     0
102
RTVSPost2010PropOp36
 70
     1
102
RTVSPost2010Prop37
 90
       50
102
RTVSPost2010PropOp37
 70
     1
102
RTVSPost2010Prop38
140
0.0
102
RTVSPost2010PropOp38
 70
     1
102
RTVSPost2010Prop39
140
1.0
102
RTVSPost2010PropOp39
 70
     1
102
RTVSPost2010Prop40
 90
        0
102
RTVSPost2010PropOp40
 70
     1
102
RTVSPost2010Prop41ColorIndex
 90
       18
102
RTVSPost2010Prop41ColorRGB
 90
        0
102
RTVSPost2010PropOp41
 70
     1
102
RTVSPost2010Prop42
 90
       50
102
RTVSPost2010PropOp42
 70
     1
102
RTVSPost2010Prop43
 90
        3
102
RTVSPost2010PropOp43
 70
     1
102
RTVSPost2010Prop44ColorIndex
 90
        5
102
RTVSPost2010Prop44ColorRGB
 90
      255
102
RTVSPost2010PropOp44
 70
     1
102
RTVSPost2010Prop45
280
     0
102
RTVSPost2010PropOp45
 70
     1
102
RTVSPost2010Prop46
 90
       50
102
RTVSPost2010PropOp46
 70
     1
102
RTVSPost2010Prop47
 90
       50
102
RTVSPost2010PropOp47
 70
     1
102
RTVSPost2010Prop48
 90
       50
102
RTVSPost2010PropOp48
 70
     1
102
RTVSPost2010Prop49
280
     0
102
RTVSPost2010PropOp49
 70
     1
102
RTVSPost2010Prop50
 90
       50
102
RTVSPost2010PropOp50
 70
     1
102
RTVSPost2010Prop51ColorIndex
 90
      256
102
RTVSPost2010Prop51ColorRGB
 90
-16777216
102
RTVSPost2010PropOp51
 70
     0
102
RTVSPost2010Prop52
140
1.0
102
RTVSPost2010PropOp52
 70
     0
102
RTVSPost2010Prop53
 90
        2
102
RTVSPost2010PropOp53
 70
     1
102
RTVSPost2010Prop54
  1
strokes_ogs.tif
102
RTVSPost2010PropOp54
 70
     1
102
RTVSPost2010Prop55
280
     0
102
RTVSPost2010PropOp55
 70
     1
102
RTVSPost2010Prop56
140
1.0
102
RTVSPost2010PropOp56
 70
     1
102
RTVSPost2010Prop57
140
1.0
102
RTVSPost2010PropOp57
 70
     1
102
RTVSPropertyOp0
 70
     1
102
RTVSPropertyOp1
 70
     1
102
RTVSPropertyOp2
 70
     1
102
RTVSPropertyOp3
 70
     1
102
RTVSPropertyOp4
 70
     1
102
RTVSPropertyOp5
 70
     1
102
RTVSPropertyOp6
 70
     1
102
RTVSPropertyOp7
 70
     1
102
RTVSPropertyOp8
 70
     1
102
RTVSPropertyOp9
 70
     1
102
RTVSPropertyOp10
 70
     1
102
RTVSPropertyOp11
 70
     1
102
RTVSPropertyOp12
 70
     1
102
RTVSPropertyOp13
 70
     1
102
RTVSPropertyOp14
 70
     1
102
RTVSPropertyOp15
 70
     1
102
RTVSPropertyOp16
 70
     1
102
RTVSPropertyOp17
 70
     1
102
RTVSPropertyOp18
 70
     1
102
RTVSPropertyOp19
 70
     1
102
RTVSPropertyOp20
 70
     1
102
RTVSPropertyOp21
 70
     1
102
RTVSPropertyOp22
 70
     1
102
RTVSPropertyOp23
 70
     1
102
RTVSPropertyOp24
 70
     1
102
RTVSPropertyOp25
 70
     1
102
RTVSPropertyOp26
 70
     1
102
RTVSPropertyOp27
 70
     1
102
RTVSPropertyOp28
 70
     1
102
RTVSPropertyOp29
 70
     1
102
RTVSPropertyOp30
 70
     1
102
RTVSPropertyOp31
 70
     1
102
RTVSPropertyOp32
 70
     1
102
RTVSPropertyOp33
 70
     1
102
RTVSPropertyOp34
 70
     1
102
RTVSPropertyOp35
 70
     1
102
RTVSPropertyOp36
 70
     1
102
RTVSPropertyOp37
 70
     1
102
RTVSPropertyOp38
 70
     1
102
RTVSPropertyOp39
 70
     1
102
RTVSPropertyOp40
 70
     1
102
RTVSPropertyOp41
 70
     1
102
RTVSPropertyOp42
 70
     1
102
RTVSPropertyOp43
 70
     1
102
RTVSPropertyOp44
 70
     1
102
RTVSPropertyOp45
 70
     1
102
RTVSPropertyOp46
 70
     1
102
RTVSPropertyOp47
 70
     1
102
RTVSPropertyOp48
 70
     1
102
RTVSPropertyOp49
 70
     1
102
RTVSPropertyOp50
 70
     1
102
RTVSPropertyOp51
 70
     0
102
RTVSPropertyOp52
 70
     0
102
RTVSPropertyOp53
 70
     1
102
RTVSPropertyOp54
 70
     1
102
RTVSPropertyOp55
 70
     1
102
RTVSPropertyOp56
 70
     1
102
RTVSPropertyOp57
 70
     1
102
RTVSPropertyOp58
 70
     1
102
RTVSPropertyOp59
 70
     1
102
RTVSPropertyOp60
 70
     1
102
RTVSPropertyOp61
 70
     1
102
RTVSPropertyOp62
 70
     1
  0
XRECORD
  5
D7
102
{ACAD_REACTORS
330
D6
102
}
330
D6
100
AcDbXrecord
280
     1
102
RTVSPost2010Prop28
280
     0
102
RTVSPost2010PropOp28
 70
     1
102
RTVSPost2010Prop29
280
     1
102
RTVSPost2010PropOp29
 70
     1
102
RTVSPost2010Prop30
280
     1
102
RTVSPost2010PropOp30
 70
     1
102
RTVSPost2010Prop31
280
     0
102
RTVSPost2010PropOp31
 70
     1
102
RTVSPost2010Prop32
280
     0
102
RTVSPost2010PropOp32
 70
     1
102
RTVSPost2010Prop33
280
     0
102
RTVSPost2010PropOp33
 70
     1
102
RTVSPost2010Prop34
280
     0
102
RTVSPost2010PropOp34
 70
     1
102
RTVSPost2010Prop35
280
     0
102
RTVSPost2010PropOp35
 70
     1
102
RTVSPost2010Prop36
280
     0
102
RTVSPost2010PropOp36
 70
     1
102
RTVSPost2010Prop37
 90
       50
102
RTVSPost2010PropOp37
 70
     1
102
RTVSPost2010Prop38
140
0.0
102
RTVSPost2010PropOp38
 70
     1
102
RTVSPost2010Prop39
140
1.0
102
RTVSPost2010PropOp39
 70
     1
102
RTVSPost2010Prop40
 90
        0
102
RTVSPost2010PropOp40
 70
     1
102
RTVSPost2010Prop41ColorIndex
 90
       18
102
RTVSPost2010Prop41ColorRGB
 90
        0
102
RTVSPost2010PropOp41
 70
     1
102
RTVSPost2010Prop42
 90
       50
102
RTVSPost2010PropOp42
 70
     1
102
RTVSPost2010Prop43
 90
        3
102
RTVSPost2010PropOp43
 70
     1
102
RTVSPost2010Prop44ColorIndex
 90
        5
102
RTVSPost2010Prop44ColorRGB
 90
      255
102
RTVSPost2010PropOp44
 70
     1
102
RTVSPost2010Prop45
280
     0
102
RTVSPost2010PropOp45
 70
     1
102
RTVSPost2010Prop46
 90
       50
102
RTVSPost2010PropOp46
 70
     1
102
RTVSPost2010Prop47
 90
       50
102
RTVSPost2010PropOp47
 70
     1
102
RTVSPost2010Prop48
 90
       50
102
RTVSPost2010PropOp48
 70
     1
102
RTVSPost2010Prop49
280
     0
102
RTVSPost2010PropOp49
 70
     1
102
RTVSPost2010Prop50
 90
       50
102
RTVSPost2010PropOp50
 70
     1
102
RTVSPost2010Prop51ColorIndex
 90
      256
102
RTVSPost2010Prop51ColorRGB
 90
-16777216
102
RTVSPost2010PropOp51
 70
     0
102
RTVSPost2010Prop52
140
1.0
102
RTVSPost2010PropOp52
 70
     0
102
RTVSPost2010Prop53
 90
        2
102
RTVSPost2010PropOp53
 70
     1
102
RTVSPost2010Prop54
  1
strokes_ogs.tif
102
RTVSPost2010PropOp54
 70
     1
102
RTVSPost2010Prop55
280
     0
102
RTVSPost2010PropOp55
 70
     1
102
RTVSPost2010Prop56
140
1.0
102
RTVSPost2010PropOp56
 70
     1
102
RTVSPost2010Prop57
140
1.0
102
RTVSPost2010PropOp57
 70
     1
102
RTVSPropertyOp0
 70
     1
102
RTVSPropertyOp1
 70
     1
102
RTVSPropertyOp2
 70
     1
102
RTVSPropertyOp3
 70
     1
102
RTVSPropertyOp4
 70
     1
102
RTVSPropertyOp5
 70
     1
102
RTVSPropertyOp6
 70
     1
102
RTVSPropertyOp7
 70
     1
102
RTVSPropertyOp8
 70
     1
102
RTVSPropertyOp9
 70
     1
102
RTVSPropertyOp10
 70
     1
102
RTVSPropertyOp11
 70
     1
102
RTVSPropertyOp12
 70
     1
102
RTVSPropertyOp13
 70
     1
102
RTVSPropertyOp14
 70
     1
102
RTVSPropertyOp15
 70
     1
102
RTVSPropertyOp16
 70
     1
102
RTVSPropertyOp17
 70
     1
102
RTVSPropertyOp18
 70
     1
102
RTVSPropertyOp19
 70
     1
102
RTVSPropertyOp20
 70
     1
102
RTVSPropertyOp21
 70
     1
102
RTVSPropertyOp22
 70
     1
102
RTVSPropertyOp23
 70
     1
102
RTVSPropertyOp24
 70
     1
102
RTVSPropertyOp25
 70
     1
102
RTVSPropertyOp26
 70
     1
102
RTVSPropertyOp27
 70
     1
102
RTVSPropertyOp28
 70
     1
102
RTVSPropertyOp29
 70
     1
102
RTVSPropertyOp30
 70
     1
102
RTVSPropertyOp31
 70
     1
102
RTVSPropertyOp32
 70
     1
102
RTVSPropertyOp33
 70
     1
102
RTVSPropertyOp34
 70
     1
102
RTVSPropertyOp35
 70
     1
102
RTVSPropertyOp36
 70
     1
102
RTVSPropertyOp37
 70
     1
102
RTVSPropertyOp38
 70
     1
102
RTVSPropertyOp39
 70
     1
102
RTVSPropertyOp40
 70
     1
102
RTVSPropertyOp41
 70
     1
102
RTVSPropertyOp42
 70
     1
102
RTVSPropertyOp43
 70
     1
102
RTVSPropertyOp44
 70
     1
102
RTVSPropertyOp45
 70
     1
102
RTVSPropertyOp46
 70
     1
102
RTVSPropertyOp47
 70
     1
102
RTVSPropertyOp48
 70
     1
102
RTVSPropertyOp49
 70
     1
102
RTVSPropertyOp50
 70
     1
102
RTVSPropertyOp51
 70
     0
102
RTVSPropertyOp52
 70
     0
102
RTVSPropertyOp53
 70
     1
102
RTVSPropertyOp54
 70
     1
102
RTVSPropertyOp55
 70
     1
102
RTVSPropertyOp56
 70
     1
102
RTVSPropertyOp57
 70
     1
102
RTVSPropertyOp58
 70
     1
102
RTVSPropertyOp59
 70
     1
102
RTVSPropertyOp60
 70
     1
102
RTVSPropertyOp61
 70
     1
102
RTVSPropertyOp62
 70
     1
  0
XRECORD
  5
D9
102
{ACAD_REACTORS
330
D8
102
}
330
D8
100
AcDbXrecord
280
     1
102
RTVSPost2010Prop28
280
     0
102
RTVSPost2010PropOp28
 70
     1
102
RTVSPost2010Prop29
280
     1
102
RTVSPost2010PropOp29
 70
     1
102
RTVSPost2010Prop30
280
     1
102
RTVSPost2010PropOp30
 70
     1
102
RTVSPost2010Prop31
280
     0
102
RTVSPost2010PropOp31
 70
     1
102
RTVSPost2010Prop32
280
     0
102
RTVSPost2010PropOp32
 70
     1
102
RTVSPost2010Prop33
280
     0
102
RTVSPost2010PropOp33
 70
     1
102
RTVSPost2010Prop34
280
     0
102
RTVSPost2010PropOp34
 70
     1
102
RTVSPost2010Prop35
280
     0
102
RTVSPost2010PropOp35
 70
     1
102
RTVSPost2010Prop36
280
     0
102
RTVSPost2010PropOp36
 70
     1
102
RTVSPost2010Prop37
 90
       50
102
RTVSPost2010PropOp37
 70
     1
102
RTVSPost2010Prop38
140
0.0
102
RTVSPost2010PropOp38
 70
     1
102
RTVSPost2010Prop39
140
1.0
102
RTVSPost2010PropOp39
 70
     1
102
RTVSPost2010Prop40
 90
        0
102
RTVSPost2010PropOp40
 70
     1
102
RTVSPost2010Prop41ColorIndex
 90
       18
102
RTVSPost2010Prop41ColorRGB
 90
        0
102
RTVSPost2010PropOp41
 70
     1
102
RTVSPost2010Prop42
 90
       50
102
RTVSPost2010PropOp42
 70
     1
102
RTVSPost2010Prop43
 90
        3
102
RTVSPost2010PropOp43
 70
     1
102
RTVSPost2010Prop44ColorIndex
 90
        5
102
RTVSPost2010Prop44ColorRGB
 90
      255
102
RTVSPost2010PropOp44
 70
     1
102
RTVSPost2010Prop45
280
     0
102
RTVSPost2010PropOp45
 70
     1
102
RTVSPost2010Prop46
 90
       50
102
RTVSPost2010PropOp46
 70
     1
102
RTVSPost2010Prop47
 90
       50
102
RTVSPost2010PropOp47
 70
     1
102
RTVSPost2010Prop48
 90
       50
102
RTVSPost2010PropOp48
 70
     1
102
RTVSPost2010Prop49
280
     0
102
RTVSPost2010PropOp49
 70
     1
102
RTVSPost2010Prop50
 90
       50
102
RTVSPost2010PropOp50
 70
     1
102
RTVSPost2010Prop51ColorIndex
 90
      256
102
RTVSPost2010Prop51ColorRGB
 90
-16777216
102
RTVSPost2010PropOp51
 70
     0
102
RTVSPost2010Prop52
140
1.0
102
RTVSPost2010PropOp52
 70
     0
102
RTVSPost2010Prop53
 90
        2
102
RTVSPost2010PropOp53
 70
     1
102
RTVSPost2010Prop54
  1
strokes_ogs.tif
102
RTVSPost2010PropOp54
 70
     1
102
RTVSPost2010Prop55
280
     0
102
RTVSPost2010PropOp55
 70
     1
102
RTVSPost2010Prop56
140
1.0
102
RTVSPost2010PropOp56
 70
     1
102
RTVSPost2010Prop57
140
1.0
102
RTVSPost2010PropOp57
 70
     1
102
RTVSPropertyOp0
 70
     1
102
RTVSPropertyOp1
 70
     1
102
RTVSPropertyOp2
 70
     1
102
RTVSPropertyOp3
 70
     1
102
RTVSPropertyOp4
 70
     1
102
RTVSPropertyOp5
 70
     1
102
RTVSPropertyOp6
 70
     1
102
RTVSPropertyOp7
 70
     1
102
RTVSPropertyOp8
 70
     1
102
RTVSPropertyOp9
 70
     1
102
RTVSPropertyOp10
 70
     1
102
RTVSPropertyOp11
 70
     1
102
RTVSPropertyOp12
 70
     1
102
RTVSPropertyOp13
 70
     1
102
RTVSPropertyOp14
 70
     1
102
RTVSPropertyOp15
 70
     1
102
RTVSPropertyOp16
 70
     1
102
RTVSPropertyOp17
 70
     1
102
RTVSPropertyOp18
 70
     1
102
RTVSPropertyOp19
 70
     1
102
RTVSPropertyOp20
 70
     1
102
RTVSPropertyOp21
 70
     1
102
RTVSPropertyOp22
 70
     1
102
RTVSPropertyOp23
 70
     1
102
RTVSPropertyOp24
 70
     1
102
RTVSPropertyOp25
 70
     1
102
RTVSPropertyOp26
 70
     1
102
RTVSPropertyOp27
 70
     1
102
RTVSPropertyOp28
 70
     1
102
RTVSPropertyOp29
 70
     1
102
RTVSPropertyOp30
 70
     1
102
RTVSPropertyOp31
 70
     1
102
RTVSPropertyOp32
 70
     1
102
RTVSPropertyOp33
 70
     1
102
RTVSPropertyOp34
 70
     1
102
RTVSPropertyOp35
 70
     1
102
RTVSPropertyOp36
 70
     1
102
RTVSPropertyOp37
 70
     1
102
RTVSPropertyOp38
 70
     1
102
RTVSPropertyOp39
 70
     1
102
RTVSPropertyOp40
 70
     1
102
RTVSPropertyOp41
 70
     1
102
RTVSPropertyOp42
 70
     1
102
RTVSPropertyOp43
 70
     1
102
RTVSPropertyOp44
 70
     1
102
RTVSPropertyOp45
 70
     1
102
RTVSPropertyOp46
 70
     1
102
RTVSPropertyOp47
 70
     1
102
RTVSPropertyOp48
 70
     1
102
RTVSPropertyOp49
 70
     1
102
RTVSPropertyOp50
 70
     1
102
RTVSPropertyOp51
 70
     0
102
RTVSPropertyOp52
 70
     0
102
RTVSPropertyOp53
 70
     1
102
RTVSPropertyOp54
 70
     1
102
RTVSPropertyOp55
 70
     1
102
RTVSPropertyOp56
 70
     1
102
RTVSPropertyOp57
 70
     1
102
RTVSPropertyOp58
 70
     1
102
RTVSPropertyOp59
 70
     1
102
RTVSPropertyOp60
 70
     1
102
RTVSPropertyOp61
 70
     1
102
RTVSPropertyOp62
 70
     1
  0
XRECORD
  5
CF
102
{ACAD_REACTORS
330
CE
102
}
330
CE
100
AcDbXrecord
280
     1
102
RTVSPost2010Prop28
280
     0
102
RTVSPost2010PropOp28
 70
     1
102
RTVSPost2010Prop29
280
     1
102
RTVSPost2010PropOp29
 70
     1
102
RTVSPost2010Prop30
280
     1
102
RTVSPost2010PropOp30
 70
     1
102
RTVSPost2010Prop31
280
     0
102
RTVSPost2010PropOp31
 70
     1
102
RTVSPost2010Prop32
280
     0
102
RTVSPost2010PropOp32
 70
     1
102
RTVSPost2010Prop33
280
     0
102
RTVSPost2010PropOp33
 70
     1
102
RTVSPost2010Prop34
280
     0
102
RTVSPost2010PropOp34
 70
     1
102
RTVSPost2010Prop35
280
     0
102
RTVSPost2010PropOp35
 70
     1
102
RTVSPost2010Prop36
280
     0
102
RTVSPost2010PropOp36
 70
     1
102
RTVSPost2010Prop37
 90
       50
102
RTVSPost2010PropOp37
 70
     1
102
RTVSPost2010Prop38
140
0.0
102
RTVSPost2010PropOp38
 70
     1
102
RTVSPost2010Prop39
140
1.0
102
RTVSPost2010PropOp39
 70
     1
102
RTVSPost2010Prop40
 90
        0
102
RTVSPost2010PropOp40
 70
     1
102
RTVSPost2010Prop41ColorIndex
 90
       18
102
RTVSPost2010Prop41ColorRGB
 90
        0
102
RTVSPost2010PropOp41
 70
     1
102
RTVSPost2010Prop42
 90
       50
102
RTVSPost2010PropOp42
 70
     1
102
RTVSPost2010Prop43
 90
        3
102
RTVSPost2010PropOp43
 70
     1
102
RTVSPost2010Prop44ColorIndex
 90
        5
102
RTVSPost2010Prop44ColorRGB
 90
      255
102
RTVSPost2010PropOp44
 70
     1
102
RTVSPost2010Prop45
280
     0
102
RTVSPost2010PropOp45
 70
     1
102
RTVSPost2010Prop46
 90
       50
102
RTVSPost2010PropOp46
 70
     1
102
RTVSPost2010Prop47
 90
       50
102
RTVSPost2010PropOp47
 70
     1
102
RTVSPost2010Prop48
 90
       50
102
RTVSPost2010PropOp48
 70
     1
102
RTVSPost2010Prop49
280
     0
102
RTVSPost2010PropOp49
 70
     1
102
RTVSPost2010Prop50
 90
       50
102
RTVSPost2010PropOp50
 70
     1
102
RTVSPost2010Prop51ColorIndex
 90
      256
102
RTVSPost2010Prop51ColorRGB
 90
-16777216
102
RTVSPost2010PropOp51
 70
     0
102
RTVSPost2010Prop52
140
1.0
102
RTVSPost2010PropOp52
 70
     0
102
RTVSPost2010Prop53
 90
        2
102
RTVSPost2010PropOp53
 70
     1
102
RTVSPost2010Prop54
  1
strokes_ogs.tif
102
RTVSPost2010PropOp54
 70
     1
102
RTVSPost2010Prop55
280
     0
102
RTVSPost2010PropOp55
 70
     1
102
RTVSPost2010Prop56
140
1.0
102
RTVSPost2010PropOp56
 70
     1
102
RTVSPost2010Prop57
140
1.0
102
RTVSPost2010PropOp57
 70
     1
102
RTVSPropertyOp0
 70
     1
102
RTVSPropertyOp1
 70
     1
102
RTVSPropertyOp2
 70
     1
102
RTVSPropertyOp3
 70
     1
102
RTVSPropertyOp4
 70
     1
102
RTVSPropertyOp5
 70
     1
102
RTVSPropertyOp6
 70
     1
102
RTVSPropertyOp7
 70
     1
102
RTVSPropertyOp8
 70
     1
102
RTVSPropertyOp9
 70
     1
102
RTVSPropertyOp10
 70
     1
102
RTVSPropertyOp11
 70
     1
102
RTVSPropertyOp12
 70
     1
102
RTVSPropertyOp13
 70
     1
102
RTVSPropertyOp14
 70
     1
102
RTVSPropertyOp15
 70
     1
102
RTVSPropertyOp16
 70
     1
102
RTVSPropertyOp17
 70
     1
102
RTVSPropertyOp18
 70
     1
102
RTVSPropertyOp19
 70
     1
102
RTVSPropertyOp20
 70
     1
102
RTVSPropertyOp21
 70
     1
102
RTVSPropertyOp22
 70
     1
102
RTVSPropertyOp23
 70
     1
102
RTVSPropertyOp24
 70
     1
102
RTVSPropertyOp25
 70
     1
102
RTVSPropertyOp26
 70
     1
102
RTVSPropertyOp27
 70
     1
102
RTVSPropertyOp28
 70
     1
102
RTVSPropertyOp29
 70
     1
102
RTVSPropertyOp30
 70
     1
102
RTVSPropertyOp31
 70
     1
102
RTVSPropertyOp32
 70
     1
102
RTVSPropertyOp33
 70
     1
102
RTVSPropertyOp34
 70
     1
102
RTVSPropertyOp35
 70
     1
102
RTVSPropertyOp36
 70
     1
102
RTVSPropertyOp37
 70
     1
102
RTVSPropertyOp38
 70
     1
102
RTVSPropertyOp39
 70
     1
102
RTVSPropertyOp40
 70
     1
102
RTVSPropertyOp41
 70
     1
102
RTVSPropertyOp42
 70
     1
102
RTVSPropertyOp43
 70
     1
102
RTVSPropertyOp44
 70
     1
102
RTVSPropertyOp45
 70
     1
102
RTVSPropertyOp46
 70
     1
102
RTVSPropertyOp47
 70
     1
102
RTVSPropertyOp48
 70
     1
102
RTVSPropertyOp49
 70
     1
102
RTVSPropertyOp50
 70
     1
102
RTVSPropertyOp51
 70
     0
102
RTVSPropertyOp52
 70
     0
102
RTVSPropertyOp53
 70
     1
102
RTVSPropertyOp54
 70
     1
102
RTVSPropertyOp55
 70
     1
102
RTVSPropertyOp56
 70
     1
102
RTVSPropertyOp57
 70
     1
102
RTVSPropertyOp58
 70
     1
102
RTVSPropertyOp59
 70
     1
102
RTVSPropertyOp60
 70
     1
102
RTVSPropertyOp61
 70
     1
102
RTVSPropertyOp62
 70
     1
  0
XRECORD
  5
C3
102
{ACAD_REACTORS
330
C2
102
}
330
C2
100
AcDbXrecord
280
     1
102
RTVSPost2010Prop28
280
     0
102
RTVSPost2010PropOp28
 70
     1
102
RTVSPost2010Prop29
280
     1
102
RTVSPost2010PropOp29
 70
     1
102
RTVSPost2010Prop30
280
     1
102
RTVSPost2010PropOp30
 70
     1
102
RTVSPost2010Prop31
280
     0
102
RTVSPost2010PropOp31
 70
     1
102
RTVSPost2010Prop32
280
     0
102
RTVSPost2010PropOp32
 70
     1
102
RTVSPost2010Prop33
280
     0
102
RTVSPost2010PropOp33
 70
     1
102
RTVSPost2010Prop34
280
     0
102
RTVSPost2010PropOp34
 70
     1
102
RTVSPost2010Prop35
280
     0
102
RTVSPost2010PropOp35
 70
     1
102
RTVSPost2010Prop36
280
     0
102
RTVSPost2010PropOp36
 70
     1
102
RTVSPost2010Prop37
 90
       50
102
RTVSPost2010PropOp37
 70
     1
102
RTVSPost2010Prop38
140
0.0
102
RTVSPost2010PropOp38
 70
     1
102
RTVSPost2010Prop39
140
1.0
102
RTVSPost2010PropOp39
 70
     1
102
RTVSPost2010Prop40
 90
        0
102
RTVSPost2010PropOp40
 70
     1
102
RTVSPost2010Prop41ColorIndex
 90
       18
102
RTVSPost2010Prop41ColorRGB
 90
        0
102
RTVSPost2010PropOp41
 70
     1
102
RTVSPost2010Prop42
 90
       50
102
RTVSPost2010PropOp42
 70
     1
102
RTVSPost2010Prop43
 90
        3
102
RTVSPost2010PropOp43
 70
     1
102
RTVSPost2010Prop44ColorIndex
 90
        5
102
RTVSPost2010Prop44ColorRGB
 90
      255
102
RTVSPost2010PropOp44
 70
     1
102
RTVSPost2010Prop45
280
     0
102
RTVSPost2010PropOp45
 70
     1
102
RTVSPost2010Prop46
 90
       50
102
RTVSPost2010PropOp46
 70
     1
102
RTVSPost2010Prop47
 90
       50
102
RTVSPost2010PropOp47
 70
     1
102
RTVSPost2010Prop48
 90
       50
102
RTVSPost2010PropOp48
 70
     1
102
RTVSPost2010Prop49
280
     0
102
RTVSPost2010PropOp49
 70
     1
102
RTVSPost2010Prop50
 90
       50
102
RTVSPost2010PropOp50
 70
     1
102
RTVSPost2010Prop51ColorIndex
 90
      256
102
RTVSPost2010Prop51ColorRGB
 90
-16777216
102
RTVSPost2010PropOp51
 70
     0
102
RTVSPost2010Prop52
140
1.0
102
RTVSPost2010PropOp52
 70
     0
102
RTVSPost2010Prop53
 90
        2
102
RTVSPost2010PropOp53
 70
     1
102
RTVSPost2010Prop54
  1
strokes_ogs.tif
102
RTVSPost2010PropOp54
 70
     1
102
RTVSPost2010Prop55
280
     0
102
RTVSPost2010PropOp55
 70
     1
102
RTVSPost2010Prop56
140
1.0
102
RTVSPost2010PropOp56
 70
     1
102
RTVSPost2010Prop57
140
1.0
102
RTVSPost2010PropOp57
 70
     1
102
RTVSPropertyOp0
 70
     1
102
RTVSPropertyOp1
 70
     1
102
RTVSPropertyOp2
 70
     1
102
RTVSPropertyOp3
 70
     1
102
RTVSPropertyOp4
 70
     1
102
RTVSPropertyOp5
 70
     1
102
RTVSPropertyOp6
 70
     1
102
RTVSPropertyOp7
 70
     1
102
RTVSPropertyOp8
 70
     1
102
RTVSPropertyOp9
 70
     1
102
RTVSPropertyOp10
 70
     1
102
RTVSPropertyOp11
 70
     1
102
RTVSPropertyOp12
 70
     1
102
RTVSPropertyOp13
 70
     1
102
RTVSPropertyOp14
 70
     1
102
RTVSPropertyOp15
 70
     1
102
RTVSPropertyOp16
 70
     1
102
RTVSPropertyOp17
 70
     1
102
RTVSPropertyOp18
 70
     1
102
RTVSPropertyOp19
 70
     1
102
RTVSPropertyOp20
 70
     1
102
RTVSPropertyOp21
 70
     1
102
RTVSPropertyOp22
 70
     1
102
RTVSPropertyOp23
 70
     1
102
RTVSPropertyOp24
 70
     1
102
RTVSPropertyOp25
 70
     1
102
RTVSPropertyOp26
 70
     1
102
RTVSPropertyOp27
 70
     1
102
RTVSPropertyOp28
 70
     1
102
RTVSPropertyOp29
 70
     1
102
RTVSPropertyOp30
 70
     1
102
RTVSPropertyOp31
 70
     1
102
RTVSPropertyOp32
 70
     1
102
RTVSPropertyOp33
 70
     1
102
RTVSPropertyOp34
 70
     1
102
RTVSPropertyOp35
 70
     1
102
RTVSPropertyOp36
 70
     1
102
RTVSPropertyOp37
 70
     1
102
RTVSPropertyOp38
 70
     1
102
RTVSPropertyOp39
 70
     1
102
RTVSPropertyOp40
 70
     1
102
RTVSPropertyOp41
 70
     1
102
RTVSPropertyOp42
 70
     1
102
RTVSPropertyOp43
 70
     1
102
RTVSPropertyOp44
 70
     1
102
RTVSPropertyOp45
 70
     1
102
RTVSPropertyOp46
 70
     1
102
RTVSPropertyOp47
 70
     1
102
RTVSPropertyOp48
 70
     1
102
RTVSPropertyOp49
 70
     1
102
RTVSPropertyOp50
 70
     1
102
RTVSPropertyOp51
 70
     0
102
RTVSPropertyOp52
 70
     0
102
RTVSPropertyOp53
 70
     1
102
RTVSPropertyOp54
 70
     1
102
RTVSPropertyOp55
 70
     1
102
RTVSPropertyOp56
 70
     1
102
RTVSPropertyOp57
 70
     1
102
RTVSPropertyOp58
 70
     1
102
RTVSPropertyOp59
 70
     1
102
RTVSPropertyOp60
 70
     1
102
RTVSPropertyOp61
 70
     1
102
RTVSPropertyOp62
 70
     1
  0
XRECORD
  5
DB
102
{ACAD_REACTORS
330
DA
102
}
330
DA
100
AcDbXrecord
280
     1
102
RTVSPost2010Prop28
280
     0
102
RTVSPost2010PropOp28
 70
     1
102
RTVSPost2010Prop29
280
     1
102
RTVSPost2010PropOp29
 70
     1
102
RTVSPost2010Prop30
280
     1
102
RTVSPost2010PropOp30
 70
     1
102
RTVSPost2010Prop31
280
     0
102
RTVSPost2010PropOp31
 70
     1
102
RTVSPost2010Prop32
280
     0
102
RTVSPost2010PropOp32
 70
     1
102
RTVSPost2010Prop33
280
     0
102
RTVSPost2010PropOp33
 70
     1
102
RTVSPost2010Prop34
280
     0
102
RTVSPost2010PropOp34
 70
     1
102
RTVSPost2010Prop35
280
     0
102
RTVSPost2010PropOp35
 70
     1
102
RTVSPost2010Prop36
280
     0
102
RTVSPost2010PropOp36
 70
     1
102
RTVSPost2010Prop37
 90
       50
102
RTVSPost2010PropOp37
 70
     1
102
RTVSPost2010Prop38
140
0.0
102
RTVSPost2010PropOp38
 70
     1
102
RTVSPost2010Prop39
140
1.0
102
RTVSPost2010PropOp39
 70
     1
102
RTVSPost2010Prop40
 90
        0
102
RTVSPost2010PropOp40
 70
     1
102
RTVSPost2010Prop41ColorIndex
 90
       18
102
RTVSPost2010Prop41ColorRGB
 90
        0
102
RTVSPost2010PropOp41
 70
     1
102
RTVSPost2010Prop42
 90
       50
102
RTVSPost2010PropOp42
 70
     1
102
RTVSPost2010Prop43
 90
        3
102
RTVSPost2010PropOp43
 70
     1
102
RTVSPost2010Prop44ColorIndex
 90
        5
102
RTVSPost2010Prop44ColorRGB
 90
      255
102
RTVSPost2010PropOp44
 70
     1
102
RTVSPost2010Prop45
280
     0
102
RTVSPost2010PropOp45
 70
     1
102
RTVSPost2010Prop46
 90
       50
102
RTVSPost2010PropOp46
 70
     1
102
RTVSPost2010Prop47
 90
       50
102
RTVSPost2010PropOp47
 70
     1
102
RTVSPost2010Prop48
 90
       50
102
RTVSPost2010PropOp48
 70
     1
102
RTVSPost2010Prop49
280
     0
102
RTVSPost2010PropOp49
 70
     1
102
RTVSPost2010Prop50
 90
       50
102
RTVSPost2010PropOp50
 70
     1
102
RTVSPost2010Prop51ColorIndex
 90
      256
102
RTVSPost2010Prop51ColorRGB
 90
-16777216
102
RTVSPost2010PropOp51
 70
     0
102
RTVSPost2010Prop52
140
1.0
102
RTVSPost2010PropOp52
 70
     0
102
RTVSPost2010Prop53
 90
        2
102
RTVSPost2010PropOp53
 70
     1
102
RTVSPost2010Prop54
  1
strokes_ogs.tif
102
RTVSPost2010PropOp54
 70
     1
102
RTVSPost2010Prop55
280
     0
102
RTVSPost2010PropOp55
 70
     1
102
RTVSPost2010Prop56
140
1.0
102
RTVSPost2010PropOp56
 70
     1
102
RTVSPost2010Prop57
140
1.0
102
RTVSPost2010PropOp57
 70
     1
102
RTVSPropertyOp0
 70
     1
102
RTVSPropertyOp1
 70
     1
102
RTVSPropertyOp2
 70
     1
102
RTVSPropertyOp3
 70
     1
102
RTVSPropertyOp4
 70
     1
102
RTVSPropertyOp5
 70
     1
102
RTVSPropertyOp6
 70
     1
102
RTVSPropertyOp7
 70
     1
102
RTVSPropertyOp8
 70
     1
102
RTVSPropertyOp9
 70
     1
102
RTVSPropertyOp10
 70
     1
102
RTVSPropertyOp11
 70
     1
102
RTVSPropertyOp12
 70
     1
102
RTVSPropertyOp13
 70
     1
102
RTVSPropertyOp14
 70
     1
102
RTVSPropertyOp15
 70
     1
102
RTVSPropertyOp16
 70
     1
102
RTVSPropertyOp17
 70
     1
102
RTVSPropertyOp18
 70
     1
102
RTVSPropertyOp19
 70
     1
102
RTVSPropertyOp20
 70
     1
102
RTVSPropertyOp21
 70
     1
102
RTVSPropertyOp22
 70
     1
102
RTVSPropertyOp23
 70
     1
102
RTVSPropertyOp24
 70
     1
102
RTVSPropertyOp25
 70
     1
102
RTVSPropertyOp26
 70
     1
102
RTVSPropertyOp27
 70
     1
102
RTVSPropertyOp28
 70
     1
102
RTVSPropertyOp29
 70
     1
102
RTVSPropertyOp30
 70
     1
102
RTVSPropertyOp31
 70
     1
102
RTVSPropertyOp32
 70
     1
102
RTVSPropertyOp33
 70
     1
102
RTVSPropertyOp34
 70
     1
102
RTVSPropertyOp35
 70
     1
102
RTVSPropertyOp36
 70
     1
102
RTVSPropertyOp37
 70
     1
102
RTVSPropertyOp38
 70
     1
102
RTVSPropertyOp39
 70
     1
102
RTVSPropertyOp40
 70
     1
102
RTVSPropertyOp41
 70
     1
102
RTVSPropertyOp42
 70
     1
102
RTVSPropertyOp43
 70
     1
102
RTVSPropertyOp44
 70
     1
102
RTVSPropertyOp45
 70
     1
102
RTVSPropertyOp46
 70
     1
102
RTVSPropertyOp47
 70
     1
102
RTVSPropertyOp48
 70
     1
102
RTVSPropertyOp49
 70
     1
102
RTVSPropertyOp50
 70
     1
102
RTVSPropertyOp51
 70
     0
102
RTVSPropertyOp52
 70
     0
102
RTVSPropertyOp53
 70
     1
102
RTVSPropertyOp54
 70
     1
102
RTVSPropertyOp55
 70
     1
102
RTVSPropertyOp56
 70
     1
102
RTVSPropertyOp57
 70
     1
102
RTVSPropertyOp58
 70
     1
102
RTVSPropertyOp59
 70
     1
102
RTVSPropertyOp60
 70
     1
102
RTVSPropertyOp61
 70
     1
102
RTVSPropertyOp62
 70
     1
  0
ENDSEC
  0
EOF
